  0
SECTION
  2
HEADER
  9
$ACADVER
  1
AC1015
  9
$ACADMAINTVER
 70
    20
  9
$DWGCODEPAGE
  3
ANSI_1252
  9
$INSBASE
 10
0.0
 20
0.0
 30
0.0
  9
$EXTMIN
 10
-3.049605955338157
 20
-1.100000000000002
 30
0.0
  9
$EXTMAX
 10
3.049605955338156
 20
1.265935804521403
 30
0.0
  9
$LIMMIN
 10
0.0
 20
0.0
  9
$LIMMAX
 10
12.0
 20
9.0
  9
$ORTHOMODE
 70
     0
  9
$REGENMODE
 70
     1
  9
$FILLMODE
 70
     1
  9
$QTEXTMODE
 70
     0
  9
$MIRRTEXT
 70
     0
  9
$LTSCALE
 40
1.0
  9
$ATTMODE
 70
     1
  9
$TEXTSIZE
 40
0.2
  9
$TRACEWID
 40
0.05
  9
$TEXTSTYLE
  7
Standard
  9
$CLAYER
  8
Dimension
  9
$CELTYPE
  6
ByLayer
  9
$CECOLOR
 62
   256
  9
$CELTSCALE
 40
1.0
  9
$DISPSILH
 70
     0
  9
$DIMSCALE
 40
0.25
  9
$DIMASZ
 40
0.18
  9
$DIMEXO
 40
0.0625
  9
$DIMDLI
 40
0.38
  9
$DIMRND
 40
0.0
  9
$DIMDLE
 40
0.0
  9
$DIMEXE
 40
0.18
  9
$DIMTP
 40
0.0
  9
$DIMTM
 40
0.0
  9
$DIMTXT
 40
0.18
  9
$DIMCEN
 40
0.09
  9
$DIMTSZ
 40
0.0
  9
$DIMTOL
 70
     0
  9
$DIMLIM
 70
     0
  9
$DIMTIH
 70
     1
  9
$DIMTOH
 70
     1
  9
$DIMSE1
 70
     0
  9
$DIMSE2
 70
     0
  9
$DIMTAD
 70
     0
  9
$DIMZIN
 70
     0
  9
$DIMBLK
  1

  9
$DIMASO
 70
     1
  9
$DIMSHO
 70
     1
  9
$DIMPOST
  1

  9
$DIMAPOST
  1

  9
$DIMALT
 70
     0
  9
$DIMALTD
 70
     2
  9
$DIMALTF
 40
25.4
  9
$DIMLFAC
 40
1.0
  9
$DIMTOFL
 70
     0
  9
$DIMTVP
 40
0.0
  9
$DIMTIX
 70
     0
  9
$DIMSOXD
 70
     0
  9
$DIMSAH
 70
     0
  9
$DIMBLK1
  1

  9
$DIMBLK2
  1

  9
$DIMSTYLE
  2
Standard
  9
$DIMCLRD
 70
     0
  9
$DIMCLRE
 70
     0
  9
$DIMCLRT
 70
     0
  9
$DIMTFAC
 40
1.0
  9
$DIMGAP
 40
0.09
  9
$DIMJUST
 70
     0
  9
$DIMSD1
 70
     0
  9
$DIMSD2
 70
     0
  9
$DIMTOLJ
 70
     1
  9
$DIMTZIN
 70
     0
  9
$DIMALTZ
 70
     0
  9
$DIMALTTZ
 70
     0
  9
$DIMUPT
 70
     0
  9
$DIMDEC
 70
     4
  9
$DIMTDEC
 70
     4
  9
$DIMALTU
 70
     2
  9
$DIMALTTD
 70
     2
  9
$DIMTXSTY
  7
Standard
  9
$DIMAUNIT
 70
     0
  9
$DIMADEC
 70
     0
  9
$DIMALTRND
 40
0.0
  9
$DIMAZIN
 70
     0
  9
$DIMDSEP
 70
    46
  9
$DIMATFIT
 70
     3
  9
$DIMFRAC
 70
     0
  9
$DIMLDRBLK
  1

  9
$DIMLUNIT
 70
     2
  9
$DIMLWD
 70
    -2
  9
$DIMLWE
 70
    -2
  9
$DIMTMOVE
 70
     0
  9
$LUNITS
 70
     2
  9
$LUPREC
 70
     4
  9
$SKETCHINC
 40
0.1
  9
$FILLETRAD
 40
0.025
  9
$AUNITS
 70
     0
  9
$AUPREC
 70
     0
  9
$MENU
  1
.
  9
$ELEVATION
 40
0.0
  9
$PELEVATION
 40
0.0
  9
$THICKNESS
 40
0.0
  9
$LIMCHECK
 70
     0
  9
$CHAMFERA
 40
0.0
  9
$CHAMFERB
 40
0.0
  9
$CHAMFERC
 40
0.0
  9
$CHAMFERD
 40
0.0
  9
$SKPOLY
 70
     0
  9
$TDCREATE
 40
2453177.061222037
  9
$TDUCREATE
 40
2453177.269555371
  9
$TDUPDATE
 40
2457378.655287616
  9
$TDUUPDATE
 40
2457378.863620949
  9
$TDINDWG
 40
0.1053459028
  9
$TDUSRTIMER
 40
0.1053455556
  9
$USRTIMER
 70
     1
  9
$ANGBASE
 50
0.0
  9
$ANGDIR
 70
     0
  9
$PDMODE
 70
     0
  9
$PDSIZE
 40
0.0
  9
$PLINEWID
 40
0.0
  9
$SPLFRAME
 70
     0
  9
$SPLINETYPE
 70
     6
  9
$SPLINESEGS
 70
     8
  9
$HANDSEED
  5
8C1
  9
$SURFTAB1
 70
     6
  9
$SURFTAB2
 70
     6
  9
$SURFTYPE
 70
     6
  9
$SURFU
 70
     6
  9
$SURFV
 70
     6
  9
$UCSBASE
  2

  9
$UCSNAME
  2

  9
$UCSORG
 10
0.0
 20
0.0
 30
0.0
  9
$UCSXDIR
 10
1.0
 20
0.0
 30
0.0
  9
$UCSYDIR
 10
0.0
 20
1.0
 30
0.0
  9
$UCSORTHOREF
  2

  9
$UCSORTHOVIEW
 70
     0
  9
$UCSORGTOP
 10
0.0
 20
0.0
 30
0.0
  9
$UCSORGBOTTOM
 10
0.0
 20
0.0
 30
0.0
  9
$UCSORGLEFT
 10
0.0
 20
0.0
 30
0.0
  9
$UCSORGRIGHT
 10
0.0
 20
0.0
 30
0.0
  9
$UCSORGFRONT
 10
0.0
 20
0.0
 30
0.0
  9
$UCSORGBACK
 10
0.0
 20
0.0
 30
0.0
  9
$PUCSBASE
  2

  9
$PUCSNAME
  2

  9
$PUCSORG
 10
0.0
 20
0.0
 30
0.0
  9
$PUCSXDIR
 10
1.0
 20
0.0
 30
0.0
  9
$PUCSYDIR
 10
0.0
 20
1.0
 30
0.0
  9
$PUCSORTHOREF
  2

  9
$PUCSORTHOVIEW
 70
     0
  9
$PUCSORGTOP
 10
0.0
 20
0.0
 30
0.0
  9
$PUCSORGBOTTOM
 10
0.0
 20
0.0
 30
0.0
  9
$PUCSORGLEFT
 10
0.0
 20
0.0
 30
0.0
  9
$PUCSORGRIGHT
 10
0.0
 20
0.0
 30
0.0
  9
$PUCSORGFRONT
 10
0.0
 20
0.0
 30
0.0
  9
$PUCSORGBACK
 10
0.0
 20
0.0
 30
0.0
  9
$USERI1
 70
     0
  9
$USERI2
 70
     0
  9
$USERI3
 70
     0
  9
$USERI4
 70
     0
  9
$USERI5
 70
     0
  9
$USERR1
 40
0.0
  9
$USERR2
 40
0.0
  9
$USERR3
 40
0.0
  9
$USERR4
 40
0.0
  9
$USERR5
 40
0.0
  9
$WORLDVIEW
 70
     1
  9
$SHADEDGE
 70
     3
  9
$SHADEDIF
 70
    70
  9
$TILEMODE
 70
     1
  9
$MAXACTVP
 70
    64
  9
$PINSBASE
 10
0.0
 20
0.0
 30
0.0
  9
$PLIMCHECK
 70
     0
  9
$PEXTMIN
 10
0.0
 20
0.0
 30
0.0
  9
$PEXTMAX
 10
0.0
 20
0.0
 30
0.0
  9
$PLIMMIN
 10
0.0
 20
0.0
  9
$PLIMMAX
 10
12.0
 20
9.0
  9
$UNITMODE
 70
     0
  9
$VISRETAIN
 70
     1
  9
$PLINEGEN
 70
     0
  9
$PSLTSCALE
 70
     1
  9
$TREEDEPTH
 70
  3020
  9
$CMLSTYLE
  2
Standard
  9
$CMLJUST
 70
     0
  9
$CMLSCALE
 40
1.0
  9
$PROXYGRAPHICS
 70
     1
  9
$MEASUREMENT
 70
     0
  9
$CELWEIGHT
370
    -1
  9
$ENDCAPS
280
     0
  9
$JOINSTYLE
280
     0
  9
$LWDISPLAY
290
     0
  9
$INSUNITS
 70
     1
  9
$HYPERLINKBASE
  1

  9
$STYLESHEET
  1

  9
$XEDIT
290
     1
  9
$CEPSNTYPE
380
     0
  9
$PSTYLEMODE
290
     1
  9
$FINGERPRINTGUID
  2
{2BEBFBD0-BB68-4CD3-B1A4-22276B8622C2}
  9
$VERSIONGUID
  2
{04A8F0F4-A36F-4CB1-9DC3-73D729F0C3D3}
  9
$EXTNAMES
290
     1
  9
$PSVPSCALE
 40
0.0
  9
$OLESTARTUP
290
     0
  0
ENDSEC
  0
SECTION
  2
CLASSES
  0
CLASS
  1
ACDBDICTIONARYWDFLT
  2
AcDbDictionaryWithDefault
  3
ObjectDBX Classes
 90
        0
280
     0
281
     0
  0
CLASS
  1
ACDBPLACEHOLDER
  2
AcDbPlaceHolder
  3
ObjectDBX Classes
 90
        0
280
     0
281
     0
  0
CLASS
  1
LAYOUT
  2
AcDbLayout
  3
ObjectDBX Classes
 90
        0
280
     0
281
     0
  0
CLASS
  1
DICTIONARYVAR
  2
AcDbDictionaryVar
  3
ObjectDBX Classes
 90
        0
280
     0
281
     0
  0
CLASS
  1
TABLESTYLE
  2
AcDbTableStyle
  3
ObjectDBX Classes
 90
     4095
280
     0
281
     0
  0
CLASS
  1
SORTENTSTABLE
  2
AcDbSortentsTable
  3
ObjectDBX Classes
 90
        0
280
     0
281
     0
  0
CLASS
  1
DIMASSOC
  2
AcDbDimAssoc
  3
"AcDbDimAssoc|Product Desc:     AcDim ARX App For Dimension|Company:          Autodesk, Inc.|WEB Address:      www.autodesk.com"
 90
        0
280
     0
281
     0
  0
CLASS
  1
MATERIAL
  2
AcDbMaterial
  3
ObjectDBX Classes
 90
     1153
280
     0
281
     0
  0
CLASS
  1
VISUALSTYLE
  2
AcDbVisualStyle
  3
ObjectDBX Classes
 90
     4095
280
     0
281
     0
  0
CLASS
  1
SCALE
  2
AcDbScale
  3
ObjectDBX Classes
 90
     1153
280
     0
281
     0
  0
CLASS
  1
MLEADERSTYLE
  2
AcDbMLeaderStyle
  3
ACDB_MLEADERSTYLE_CLASS
 90
     4095
280
     0
281
     0
  0
CLASS
  1
CELLSTYLEMAP
  2
AcDbCellStyleMap
  3
ObjectDBX Classes
 90
     1152
280
     0
281
     0
  0
ENDSEC
  0
SECTION
  2
TABLES
  0
TABLE
  2
VPORT
  5
8
330
0
100
AcDbSymbolTable
 70
     1
  0
VPORT
  5
827
330
8
100
AcDbSymbolTableRecord
100
AcDbViewportTableRecord
  2
*Active
 70
     0
 10
0.0
 20
0.0
 11
1.0
 21
1.0
 12
-0.0121894523029012
 22
0.0449351815495267
 13
0.0
 23
0.0
 14
0.5
 24
0.5
 15
0.5
 25
0.5
 16
0.0
 26
0.0
 36
1.0
 17
0.0
 27
0.0
 37
0.0
 40
2.999241216018272
 41
2.871308016877637
 42
50.0
 43
0.0
 44
0.0
 50
0.0
 51
0.0
 71
     0
 72
  1000
 73
     1
 74
     3
 75
     0
 76
     0
 77
     0
 78
     0
281
     0
 65
     1
110
0.0
120
0.0
130
0.0
111
1.0
121
0.0
131
0.0
112
0.0
122
1.0
132
0.0
 79
     0
146
0.0
  0
ENDTAB
  0
TABLE
  2
LTYPE
  5
5
330
0
100
AcDbSymbolTable
 70
     2
  0
LTYPE
  5
14
330
5
100
AcDbSymbolTableRecord
100
AcDbLinetypeTableRecord
  2
ByBlock
 70
     0
  3

 72
    65
 73
     0
 40
0.0
  0
LTYPE
  5
15
330
5
100
AcDbSymbolTableRecord
100
AcDbLinetypeTableRecord
  2
ByLayer
 70
     0
  3

 72
    65
 73
     0
 40
0.0
  0
LTYPE
  5
16
330
5
100
AcDbSymbolTableRecord
100
AcDbLinetypeTableRecord
  2
Continuous
 70
     0
  3
Solid line
 72
    65
 73
     0
 40
0.0
  0
LTYPE
  5
1A0
330
5
100
AcDbSymbolTableRecord
100
AcDbLinetypeTableRecord
  2
CENTER2
 70
     0
  3
Center (.5x) ___ _ ___ _ ___ _ ___ _ ___ _ ___
 72
    65
 73
     4
 40
1.125
 49
0.75
 74
     0
 49
-0.125
 74
     0
 49
0.125
 74
     0
 49
-0.125
 74
     0
  0
ENDTAB
  0
TABLE
  2
LAYER
  5
2
102
{ACAD_XDICTIONARY
360
1A1
102
}
330
0
100
AcDbSymbolTable
 70
     6
  0
LAYER
  5
10
102
{ACAD_XDICTIONARY
360
87D
102
}
330
2
100
AcDbSymbolTableRecord
100
AcDbLayerTableRecord
  2
0
 70
     0
 62
     7
  6
Continuous
370
    -3
390
F
  0
LAYER
  5
AD
330
2
100
AcDbSymbolTableRecord
100
AcDbLayerTableRecord
  2
Defpoints
 70
     0
 62
     7
  6
Continuous
290
     0
370
    -3
390
F
  0
LAYER
  5
19B
102
{ACAD_XDICTIONARY
360
87F
102
}
330
2
100
AcDbSymbolTableRecord
100
AcDbLayerTableRecord
  2
Object
 70
     0
 62
     5
  6
Continuous
370
    -3
390
F
1001
AcAecLayerStandard
1000

1000

  0
LAYER
  5
19D
102
{ACAD_XDICTIONARY
360
881
102
}
330
2
100
AcDbSymbolTableRecord
100
AcDbLayerTableRecord
  2
Center
 70
     0
 62
    -1
  6
CENTER2
370
    -3
390
F
1001
AcAecLayerStandard
1000

1000

  0
LAYER
  5
3EE
102
{ACAD_XDICTIONARY
360
883
102
}
330
2
100
AcDbSymbolTableRecord
100
AcDbLayerTableRecord
  2
Dimension
 70
     0
 62
     6
  6
Continuous
370
    -3
390
F
1001
AcAecLayerStandard
1000

1000

  0
LAYER
  5
819
102
{ACAD_XDICTIONARY
360
885
102
}
330
2
100
AcDbSymbolTableRecord
100
AcDbLayerTableRecord
  2
Object_hatch
 70
     0
 62
     5
  6
Continuous
370
    -3
390
F
1001
AcAecLayerStandard
1000

1000

  0
ENDTAB
  0
TABLE
  2
STYLE
  5
3
330
0
100
AcDbSymbolTable
 70
     2
  0
STYLE
  5
11
330
3
100
AcDbSymbolTableRecord
100
AcDbTextStyleTableRecord
  2
Standard
 70
     0
 40
0.0
 41
1.0
 50
0.0
 71
     0
 42
0.2
  3
txt
  4

  0
STYLE
  5
19F
330
3
100
AcDbSymbolTableRecord
100
AcDbTextStyleTableRecord
  2

 70
     1
 40
0.0
 41
1.0
 50
0.0
 71
     0
 42
0.2
  3
ltypeshp.shx
  4

  0
ENDTAB
  0
TABLE
  2
VIEW
  5
6
330
0
100
AcDbSymbolTable
 70
     0
  0
ENDTAB
  0
TABLE
  2
UCS
  5
7
330
0
100
AcDbSymbolTable
 70
     0
  0
ENDTAB
  0
TABLE
  2
APPID
  5
9
330
0
100
AcDbSymbolTable
 70
     4
  0
APPID
  5
12
330
9
100
AcDbSymbolTableRecord
100
AcDbRegAppTableRecord
  2
ACAD
 70
     0
  0
APPID
  5
C9
330
9
100
AcDbSymbolTableRecord
100
AcDbRegAppTableRecord
  2
ACAD_DSTYLE_DIMTEXT_FILL
 70
     0
  0
APPID
  5
19C
330
9
100
AcDbSymbolTableRecord
100
AcDbRegAppTableRecord
  2
AcAecLayerStandard
 70
     0
  0
APPID
  5
8C0
330
9
100
AcDbSymbolTableRecord
100
AcDbRegAppTableRecord
  2
ACAD_MLEADERVER
 70
     0
  0
ENDTAB
  0
TABLE
  2
DIMSTYLE
  5
A
330
0
100
AcDbSymbolTable
 70
     1
100
AcDbDimStyleTable
 71
     1
340
27
  0
DIMSTYLE
105
27
330
A
100
AcDbSymbolTableRecord
100
AcDbDimStyleTableRecord
  2
Standard
 70
     0
 40
0.25
340
11
  0
ENDTAB
  0
TABLE
  2
BLOCK_RECORD
  5
1
330
0
100
AcDbSymbolTable
 70
    13
  0
BLOCK_RECORD
  5
1F
102
{ACAD_XDICTIONARY
360
AA
102
}
330
1
100
AcDbSymbolTableRecord
100
AcDbBlockTableRecord
  2
*Model_Space
340
22
  0
BLOCK_RECORD
  5
58
330
1
100
AcDbSymbolTableRecord
100
AcDbBlockTableRecord
  2
*Paper_Space
340
59
  0
BLOCK_RECORD
  5
5D
330
1
100
AcDbSymbolTableRecord
100
AcDbBlockTableRecord
  2
*Paper_Space0
340
5E
  0
BLOCK_RECORD
  5
440
330
1
100
AcDbSymbolTableRecord
100
AcDbBlockTableRecord
  2
*D1
340
0
  0
BLOCK_RECORD
  5
45E
330
1
100
AcDbSymbolTableRecord
100
AcDbBlockTableRecord
  2
*D2
340
0
  0
BLOCK_RECORD
  5
47C
330
1
100
AcDbSymbolTableRecord
100
AcDbBlockTableRecord
  2
*D3
340
0
  0
BLOCK_RECORD
  5
51F
330
1
100
AcDbSymbolTableRecord
100
AcDbBlockTableRecord
  2
*D4
340
0
  0
BLOCK_RECORD
  5
61A
330
1
100
AcDbSymbolTableRecord
100
AcDbBlockTableRecord
  2
*D5
340
0
  0
BLOCK_RECORD
  5
634
330
1
100
AcDbSymbolTableRecord
100
AcDbBlockTableRecord
  2
*D6
340
0
  0
BLOCK_RECORD
  5
64E
330
1
100
AcDbSymbolTableRecord
100
AcDbBlockTableRecord
  2
*D7
340
0
  0
BLOCK_RECORD
  5
668
330
1
100
AcDbSymbolTableRecord
100
AcDbBlockTableRecord
  2
*D8
340
0
  0
BLOCK_RECORD
  5
69C
330
1
100
AcDbSymbolTableRecord
100
AcDbBlockTableRecord
  2
*D9
340
0
  0
BLOCK_RECORD
  5
6D0
330
1
100
AcDbSymbolTableRecord
100
AcDbBlockTableRecord
  2
*D10
340
0
  0
BLOCK_RECORD
  5
704
330
1
100
AcDbSymbolTableRecord
100
AcDbBlockTableRecord
  2
*D11
340
0
  0
BLOCK_RECORD
  5
72E
330
1
100
AcDbSymbolTableRecord
100
AcDbBlockTableRecord
  2
*D12
340
0
  0
ENDTAB
  0
ENDSEC
  0
SECTION
  2
BLOCKS
  0
BLOCK
  5
20
330
1F
100
AcDbEntity
  8
0
100
AcDbBlockBegin
  2
*Model_Space
 70
     0
 10
0.0
 20
0.0
 30
0.0
  3
*Model_Space
  1

  0
ENDBLK
  5
21
330
1F
100
AcDbEntity
  8
0
100
AcDbBlockEnd
  0
BLOCK
  5
5A
330
58
100
AcDbEntity
 67
     1
  8
0
100
AcDbBlockBegin
  2
*Paper_Space
 70
     0
 10
0.0
 20
0.0
 30
0.0
  3
*Paper_Space
  1

  0
ENDBLK
  5
5B
330
58
100
AcDbEntity
 67
     1
  8
0
100
AcDbBlockEnd
  0
BLOCK
  5
5F
330
5D
100
AcDbEntity
 67
     1
  8
0
100
AcDbBlockBegin
  2
*Paper_Space0
 70
     0
 10
0.0
 20
0.0
 30
0.0
  3
*Paper_Space0
  1

  0
ENDBLK
  5
60
330
5D
100
AcDbEntity
 67
     1
  8
0
100
AcDbBlockEnd
  0
BLOCK
  5
44D
330
440
100
AcDbEntity
  8
0
100
AcDbBlockBegin
  2
*D1
 70
     1
 10
0.0
 20
0.0
 30
0.0
  3
*D1
  1

  0
LINE
  5
7FE
330
440
100
AcDbEntity
  8
Dimension
 62
     0
370
    -2
100
AcDbLine
 10
-0.4728750450645684
 20
1.243435804521404
 30
0.0
 11
-0.3453750450645683
 21
1.243435804521404
 31
0.0
  0
LINE
  5
7FF
330
440
100
AcDbEntity
  8
Dimension
 62
     0
370
    -2
100
AcDbLine
 10
-0.3453750450645683
 20
1.243435804521404
 30
0.0
 11
-0.279669953795866
 21
1.006881183131265
 31
0.0
  0
MTEXT
  5
800
330
440
100
AcDbEntity
  8
Dimension
 62
     0
100
AcDbMText
 10
-0.5253750450645683
 20
1.243435804521404
 30
0.0
 40
0.045
 41
0.0
 71
     5
 72
     1
  1
\A1;R1
 73
     1
 44
1.0
1001
ACAD
1000
MTEXTBEGIN
1070
    73
1070
     1
1070
    44
1040
1.0
1070
    74
1070
     0
1000
MTEXTEND
  0
SOLID
  5
801
330
440
100
AcDbEntity
  8
Dimension
 62
     0
100
AcDbTrace
 10
-0.2724435338212396
 20
1.008888383756594
 30
0.0
 11
-0.2868963737704923
 21
1.004873982505936
 31
0.0
 12
-0.2676267500438908
 22
0.9635226632835072
 32
0.0
 13
-0.2676267500438908
 23
0.9635226632835072
 33
0.0
  0
LINE
  5
802
330
440
100
AcDbEntity
  8
Dimension
 62
     0
370
    -2
100
AcDbLine
 10
-0.0225
 20
0.0
 30
0.0
 11
0.0225
 21
0.0
 31
0.0
  0
LINE
  5
803
330
440
100
AcDbEntity
  8
Dimension
 62
     0
370
    -2
100
AcDbLine
 10
0.0
 20
-0.0225
 30
0.0
 11
0.0
 21
0.0225
 31
0.0
  0
POINT
  5
804
330
440
100
AcDbEntity
  8
Defpoints
 62
     0
100
AcDbPoint
 10
-0.2676267500438908
 20
0.9635226632835072
 30
0.0
  0
POINT
  5
805
330
440
100
AcDbEntity
  8
Defpoints
 62
     0
100
AcDbPoint
 10
0.0
 20
0.0
 30
0.0
  0
ENDBLK
  5
44E
330
440
100
AcDbEntity
  8
0
100
AcDbBlockEnd
  0
BLOCK
  5
46B
330
45E
100
AcDbEntity
  8
0
100
AcDbBlockBegin
  2
*D2
 70
     1
 10
0.0
 20
0.0
 30
0.0
  3
*D2
  1

  0
LINE
  5
5E7
330
45E
100
AcDbEntity
  8
Dimension
 62
     0
370
    -2
100
AcDbLine
 10
-2.051287689630117
 20
1.075965634454055
 30
0.0
 11
-2.006287689630116
 21
1.075965634454056
 31
0.0
  0
LINE
  5
5E8
330
45E
100
AcDbEntity
  8
Dimension
 62
     0
370
    -2
100
AcDbLine
 10
-2.006287689630116
 20
1.075965634454056
 30
0.0
 11
-1.880971592809923
 21
0.8096263736671218
 31
0.0
  0
MTEXT
  5
5E9
330
45E
100
AcDbEntity
  8
Dimension
 62
     0
100
AcDbMText
 10
-2.205037689630117
 20
1.075965634454056
 30
0.0
 40
0.045
 41
0.0
 71
     5
 72
     1
  1
\A1;R0.8498
 73
     1
 44
1.0
1001
ACAD
1000
MTEXTBEGIN
1070
    73
1070
     1
1070
    44
1040
1.0
1070
    74
1070
     0
1000
MTEXTEND
  0
SOLID
  5
5EA
330
45E
100
AcDbEntity
  8
Dimension
 62
     0
100
AcDbTrace
 10
-1.874185255968486
 20
0.8128194336844966
 30
0.0
 11
-1.88775792965136
 21
0.8064333136497468
 31
0.0
 12
-1.861813232705674
 22
0.7689083526185013
 32
0.0
 13
-1.861813232705674
 23
0.7689083526185013
 33
0.0
  0
LINE
  5
5EB
330
45E
100
AcDbEntity
  8
Dimension
 62
     0
370
    -2
100
AcDbLine
 10
-1.522499999999996
 20
-0.0000676320072311
 30
0.0
 11
-1.477499999999996
 21
-0.0000676320072311
 31
0.0
  0
LINE
  5
5EC
330
45E
100
AcDbEntity
  8
Dimension
 62
     0
370
    -2
100
AcDbLine
 10
-1.499999999999996
 20
-0.0225676320072312
 30
0.0
 11
-1.499999999999996
 21
0.0224323679927688
 31
0.0
  0
POINT
  5
5ED
330
45E
100
AcDbEntity
  8
Defpoints
 62
     0
100
AcDbPoint
 10
-1.861813232705674
 20
0.7689083526185013
 30
0.0
  0
POINT
  5
5EE
330
45E
100
AcDbEntity
  8
Defpoints
 62
     0
100
AcDbPoint
 10
-1.499999999999996
 20
-0.000067632007231
 30
0.0
  0
ENDBLK
  5
46C
330
45E
100
AcDbEntity
  8
0
100
AcDbBlockEnd
  0
BLOCK
  5
489
330
47C
100
AcDbEntity
  8
0
100
AcDbBlockBegin
  2
*D3
 70
     1
 10
0.0
 20
0.0
 30
0.0
  3
*D3
  1

  0
LINE
  5
5EF
330
47C
100
AcDbEntity
  8
Dimension
 62
     0
370
    -2
100
AcDbLine
 10
-2.660796907805396
 20
0.989693120316976
 30
0.0
 11
-2.615796907805396
 21
0.9896931203169758
 31
0.0
  0
LINE
  5
5F0
330
47C
100
AcDbEntity
  8
Dimension
 62
     0
370
    -2
100
AcDbLine
 10
-2.615796907805396
 20
0.9896931203169758
 30
0.0
 11
-2.488357002238606
 21
0.7188991010861546
 31
0.0
  0
MTEXT
  5
5F1
330
47C
100
AcDbEntity
  8
Dimension
 62
     0
100
AcDbMText
 10
-2.814546907805397
 20
0.9896931203169755
 30
0.0
 40
0.045
 41
0.0
 71
     5
 72
     1
  1
\A1;R0.7496
 73
     1
 44
1.0
1001
ACAD
1000
MTEXTBEGIN
1070
    73
1070
     1
1070
    44
1040
1.0
1070
    74
1070
     0
1000
MTEXTEND
  0
SOLID
  5
5F2
330
47C
100
AcDbEntity
  8
Dimension
 62
     0
100
AcDbTrace
 10
-2.481570933669682
 20
0.7220927312115537
 30
0.0
 11
-2.495143070807531
 21
0.7157054709607554
 31
0.0
 12
-2.469195221486211
 22
0.6781826896726086
 32
0.0
 13
-2.469195221486211
 23
0.6781826896726086
 33
0.0
  0
LINE
  5
5F3
330
47C
100
AcDbEntity
  8
Dimension
 62
     0
370
    -2
100
AcDbLine
 10
-2.172499999999997
 20
-0.0000676320072313
 30
0.0
 11
-2.127499999999997
 21
-0.0000676320072313
 31
0.0
  0
LINE
  5
5F4
330
47C
100
AcDbEntity
  8
Dimension
 62
     0
370
    -2
100
AcDbLine
 10
-2.149999999999997
 20
-0.0225676320072312
 30
0.0
 11
-2.149999999999997
 21
0.0224323679927688
 31
0.0
  0
POINT
  5
5F5
330
47C
100
AcDbEntity
  8
Defpoints
 62
     0
100
AcDbPoint
 10
-2.469195221486211
 20
0.6781826896726086
 30
0.0
  0
POINT
  5
5F6
330
47C
100
AcDbEntity
  8
Defpoints
 62
     0
100
AcDbPoint
 10
-2.149999999999997
 20
-0.0000676320072311
 30
0.0
  0
ENDBLK
  5
48A
330
47C
100
AcDbEntity
  8
0
100
AcDbBlockEnd
  0
BLOCK
  5
52C
330
51F
100
AcDbEntity
  8
0
100
AcDbBlockBegin
  2
*D4
 70
     1
 10
0.0
 20
0.0
 30
0.0
  3
*D4
  1

  0
LINE
  5
7EE
330
51F
100
AcDbEntity
  8
Dimension
 62
     0
370
    -2
100
AcDbLine
 10
-1.347218128560521
 20
1.179006131681074
 30
0.0
 11
-1.264718128560521
 21
1.179006131681074
 31
0.0
  0
LINE
  5
7EF
330
51F
100
AcDbEntity
  8
Dimension
 62
     0
370
    -2
100
AcDbLine
 10
-1.264718128560521
 20
1.179006131681074
 30
0.0
 11
-1.164869395623723
 21
0.9256864070176122
 31
0.0
  0
MTEXT
  5
7F0
330
51F
100
AcDbEntity
  8
Dimension
 62
     0
100
AcDbMText
 10
-1.455968128560521
 20
1.179006131681074
 30
0.0
 40
0.045
 41
0.0
 71
     5
 72
     1
  1
\A1;R0.95
 73
     1
 44
1.0
1001
ACAD
1000
MTEXTBEGIN
1070
    73
1070
     1
1070
    44
1040
1.0
1070
    74
1070
     0
1000
MTEXTEND
  0
SOLID
  5
7F1
330
51F
100
AcDbEntity
  8
Dimension
 62
     0
100
AcDbTrace
 10
-1.157891859892434
 20
0.9284366788439218
 30
0.0
 11
-1.171846931355011
 21
0.9229361351913027
 31
0.0
 12
-1.148367764665866
 22
0.8838211926298811
 32
0.0
 13
-1.148367764665866
 23
0.8838211926298811
 33
0.0
  0
LINE
  5
7F2
330
51F
100
AcDbEntity
  8
Dimension
 62
     0
370
    -2
100
AcDbLine
 10
-0.8225000000000003
 20
0.0000000000000003
 30
0.0
 11
-0.7775000000000004
 21
0.0000000000000003
 31
0.0
  0
LINE
  5
7F3
330
51F
100
AcDbEntity
  8
Dimension
 62
     0
370
    -2
100
AcDbLine
 10
-0.8000000000000003
 20
-0.0224999999999997
 30
0.0
 11
-0.8000000000000003
 21
0.0225000000000003
 31
0.0
  0
POINT
  5
7F4
330
51F
100
AcDbEntity
  8
Defpoints
 62
     0
100
AcDbPoint
 10
-1.148367764665866
 20
0.8838211926298811
 30
0.0
  0
POINT
  5
7F5
330
51F
100
AcDbEntity
  8
Defpoints
 62
     0
100
AcDbPoint
 10
-0.8000000000000003
 20
0.0000000000000003
 30
0.0
  0
ENDBLK
  5
52D
330
51F
100
AcDbEntity
  8
0
100
AcDbBlockEnd
  0
BLOCK
  5
625
330
61A
100
AcDbEntity
  8
0
100
AcDbBlockBegin
  2
*D5
 70
     1
 10
0.0
 20
0.0
 30
0.0
  3
*D5
  1

  0
LINE
  5
797
330
61A
100
AcDbEntity
  8
Dimension
 62
     0
370
    -2
100
AcDbLine
 10
0.0000000000000004
 20
-0.0156926320091493
 30
0.0
 11
0.0000000000000004
 21
-0.1550067179850823
 31
0.0
  0
LINE
  5
798
330
61A
100
AcDbEntity
  8
Dimension
 62
     0
370
    -2
100
AcDbLine
 10
-0.7999999999999968
 20
-0.015692632008646
 30
0.0
 11
-0.7999999999999968
 21
-0.1550067179850823
 31
0.0
  0
LINE
  5
799
330
61A
100
AcDbEntity
  8
Dimension
 62
     0
370
    -2
100
AcDbLine
 10
-0.0449999999999996
 20
-0.1100067179850823
 30
0.0
 11
-0.3362499999999982
 21
-0.1100067179850823
 31
0.0
  0
LINE
  5
79A
330
61A
100
AcDbEntity
  8
Dimension
 62
     0
370
    -2
100
AcDbLine
 10
-0.7549999999999968
 20
-0.1100067179850823
 30
0.0
 11
-0.4637499999999983
 21
-0.1100067179850823
 31
0.0
  0
SOLID
  5
79B
330
61A
100
AcDbEntity
  8
Dimension
 62
     0
100
AcDbTrace
 10
-0.0449999999999996
 20
-0.1025067179850823
 30
0.0
 11
-0.0449999999999996
 21
-0.1175067179850823
 31
0.0
 12
0.0000000000000004
 22
-0.1100067179850823
 32
0.0
 13
0.0000000000000004
 23
-0.1100067179850823
 33
0.0
  0
SOLID
  5
79C
330
61A
100
AcDbEntity
  8
Dimension
 62
     0
100
AcDbTrace
 10
-0.7549999999999968
 20
-0.1025067179850823
 30
0.0
 11
-0.7549999999999968
 21
-0.1175067179850823
 31
0.0
 12
-0.7999999999999968
 22
-0.1100067179850823
 32
0.0
 13
-0.7999999999999968
 23
-0.1100067179850823
 33
0.0
  0
MTEXT
  5
79D
330
61A
100
AcDbEntity
  8
Dimension
 62
     0
100
AcDbMText
 10
-0.3999999999999982
 20
-0.1100067179850823
 30
0.0
 40
0.045
 41
0.0
 71
     5
 72
     1
  1
\A1;0.8
 73
     1
 44
1.0
1001
ACAD
1000
MTEXTBEGIN
1070
    73
1070
     1
1070
    44
1040
1.0
1070
    74
1070
     0
1000
MTEXTEND
  0
POINT
  5
79E
330
61A
100
AcDbEntity
  8
Defpoints
 62
     0
100
AcDbPoint
 10
0.0000000000000004
 20
-0.0000676320091493
 30
0.0
  0
POINT
  5
79F
330
61A
100
AcDbEntity
  8
Defpoints
 62
     0
100
AcDbPoint
 10
-0.7999999999999968
 20
-0.000067632008646
 30
0.0
  0
POINT
  5
7A0
330
61A
100
AcDbEntity
  8
Defpoints
 62
     0
100
AcDbPoint
 10
-0.7999999999999968
 20
-0.1100067179850823
 30
0.0
  0
ENDBLK
  5
626
330
61A
100
AcDbEntity
  8
0
100
AcDbBlockEnd
  0
BLOCK
  5
63F
330
634
100
AcDbEntity
  8
0
100
AcDbBlockBegin
  2
*D6
 70
     1
 10
0.0
 20
0.0
 30
0.0
  3
*D6
  1

  0
LINE
  5
78D
330
634
100
AcDbEntity
  8
Dimension
 62
     0
370
    -2
100
AcDbLine
 10
-0.7999999999999968
 20
-0.015692632008646
 30
0.0
 11
-0.7999999999999968
 21
-0.1550067179850823
 31
0.0
  0
LINE
  5
78E
330
634
100
AcDbEntity
  8
Dimension
 62
     0
370
    -2
100
AcDbLine
 10
-1.499999999999366
 20
-0.0156926320072312
 30
0.0
 11
-1.499999999999366
 21
-0.1550067179850823
 31
0.0
  0
LINE
  5
78F
330
634
100
AcDbEntity
  8
Dimension
 62
     0
370
    -2
100
AcDbLine
 10
-0.8449999999999969
 20
-0.1100067179850823
 30
0.0
 11
-1.086249999999681
 21
-0.1100067179850823
 31
0.0
  0
LINE
  5
790
330
634
100
AcDbEntity
  8
Dimension
 62
     0
370
    -2
100
AcDbLine
 10
-1.454999999999366
 20
-0.1100067179850823
 30
0.0
 11
-1.213749999999681
 21
-0.1100067179850823
 31
0.0
  0
SOLID
  5
791
330
634
100
AcDbEntity
  8
Dimension
 62
     0
100
AcDbTrace
 10
-0.8449999999999969
 20
-0.1025067179850823
 30
0.0
 11
-0.8449999999999969
 21
-0.1175067179850823
 31
0.0
 12
-0.7999999999999968
 22
-0.1100067179850823
 32
0.0
 13
-0.7999999999999968
 23
-0.1100067179850823
 33
0.0
  0
SOLID
  5
792
330
634
100
AcDbEntity
  8
Dimension
 62
     0
100
AcDbTrace
 10
-1.454999999999366
 20
-0.1025067179850823
 30
0.0
 11
-1.454999999999366
 21
-0.1175067179850823
 31
0.0
 12
-1.499999999999366
 22
-0.1100067179850823
 32
0.0
 13
-1.499999999999366
 23
-0.1100067179850823
 33
0.0
  0
MTEXT
  5
793
330
634
100
AcDbEntity
  8
Dimension
 62
     0
100
AcDbMText
 10
-1.149999999999681
 20
-0.1100067179850823
 30
0.0
 40
0.045
 41
0.0
 71
     5
 72
     1
  1
\A1;0.7
 73
     1
 44
1.0
1001
ACAD
1000
MTEXTBEGIN
1070
    73
1070
     1
1070
    44
1040
1.0
1070
    74
1070
     0
1000
MTEXTEND
  0
POINT
  5
794
330
634
100
AcDbEntity
  8
Defpoints
 62
     0
100
AcDbPoint
 10
-0.7999999999999968
 20
-0.000067632008646
 30
0.0
  0
POINT
  5
795
330
634
100
AcDbEntity
  8
Defpoints
 62
     0
100
AcDbPoint
 10
-1.499999999999366
 20
-0.0000676320072311
 30
0.0
  0
POINT
  5
796
330
634
100
AcDbEntity
  8
Defpoints
 62
     0
100
AcDbPoint
 10
-1.499999999999366
 20
-0.1100067179850823
 30
0.0
  0
ENDBLK
  5
640
330
634
100
AcDbEntity
  8
0
100
AcDbBlockEnd
  0
BLOCK
  5
659
330
64E
100
AcDbEntity
  8
0
100
AcDbBlockBegin
  2
*D7
 70
     1
 10
0.0
 20
0.0
 30
0.0
  3
*D7
  1

  0
LINE
  5
77B
330
64E
100
AcDbEntity
  8
Dimension
 62
     0
370
    -2
100
AcDbLine
 10
-1.499999999999366
 20
-0.0156926320072312
 30
0.0
 11
-1.499999999999366
 21
-0.1550067179850823
 31
0.0
  0
LINE
  5
77C
330
64E
100
AcDbEntity
  8
Dimension
 62
     0
370
    -2
100
AcDbLine
 10
-2.149999999999996
 20
-0.0156926320077969
 30
0.0
 11
-2.149999999999996
 21
-0.1550067179850823
 31
0.0
  0
LINE
  5
77D
330
64E
100
AcDbEntity
  8
Dimension
 62
     0
370
    -2
100
AcDbLine
 10
-1.544999999999366
 20
-0.1100067179850823
 30
0.0
 11
-1.719999999999681
 21
-0.1100067179850823
 31
0.0
  0
LINE
  5
77E
330
64E
100
AcDbEntity
  8
Dimension
 62
     0
370
    -2
100
AcDbLine
 10
-2.104999999999996
 20
-0.1100067179850823
 30
0.0
 11
-1.929999999999681
 21
-0.1100067179850823
 31
0.0
  0
SOLID
  5
77F
330
64E
100
AcDbEntity
  8
Dimension
 62
     0
100
AcDbTrace
 10
-1.544999999999366
 20
-0.1025067179850823
 30
0.0
 11
-1.544999999999366
 21
-0.1175067179850823
 31
0.0
 12
-1.499999999999366
 22
-0.1100067179850823
 32
0.0
 13
-1.499999999999366
 23
-0.1100067179850823
 33
0.0
  0
SOLID
  5
780
330
64E
100
AcDbEntity
  8
Dimension
 62
     0
100
AcDbTrace
 10
-2.104999999999996
 20
-0.1025067179850823
 30
0.0
 11
-2.104999999999996
 21
-0.1175067179850823
 31
0.0
 12
-2.149999999999996
 22
-0.1100067179850823
 32
0.0
 13
-2.149999999999996
 23
-0.1100067179850823
 33
0.0
  0
MTEXT
  5
781
330
64E
100
AcDbEntity
  8
Dimension
 62
     0
100
AcDbMText
 10
-1.824999999999681
 20
-0.1100067179850823
 30
0.0
 40
0.045
 41
0.0
 71
     5
 72
     1
  1
\A1;0.650
 73
     1
 44
1.0
1001
ACAD
1000
MTEXTBEGIN
1070
    73
1070
     1
1070
    44
1040
1.0
1070
    74
1070
     0
1000
MTEXTEND
  0
POINT
  5
782
330
64E
100
AcDbEntity
  8
Defpoints
 62
     0
100
AcDbPoint
 10
-1.499999999999366
 20
-0.0000676320072311
 30
0.0
  0
POINT
  5
783
330
64E
100
AcDbEntity
  8
Defpoints
 62
     0
100
AcDbPoint
 10
-2.149999999999996
 20
-0.0000676320077969
 30
0.0
  0
POINT
  5
784
330
64E
100
AcDbEntity
  8
Defpoints
 62
     0
100
AcDbPoint
 10
-2.149999999999996
 20
-0.1100067179850823
 30
0.0
  0
ENDBLK
  5
65A
330
64E
100
AcDbEntity
  8
0
100
AcDbBlockEnd
  0
BLOCK
  5
673
330
668
100
AcDbEntity
  8
0
100
AcDbBlockBegin
  2
*D8
 70
     1
 10
0.0
 20
0.0
 30
0.0
  3
*D8
  1

  0
LINE
  5
7A1
330
668
100
AcDbEntity
  8
Dimension
 62
     0
370
    -2
100
AcDbLine
 10
0.9999999977129556
 20
0.0155573679902217
 30
0.0
 11
0.9999999977129556
 21
0.2496342167758537
 31
0.0
  0
LINE
  5
7A2
330
668
100
AcDbEntity
  8
Dimension
 62
     0
370
    -2
100
AcDbLine
 10
1.399999999999999
 20
0.0156249999999997
 30
0.0
 11
1.399999999999999
 21
0.2496342167758537
 31
0.0
  0
LINE
  5
7A3
330
668
100
AcDbEntity
  8
Dimension
 62
     0
370
    -2
100
AcDbLine
 10
1.044999997712955
 20
0.2046342167758537
 30
0.0
 11
1.136249998856477
 21
0.2046342167758537
 31
0.0
  0
LINE
  5
7A4
330
668
100
AcDbEntity
  8
Dimension
 62
     0
370
    -2
100
AcDbLine
 10
1.354999999999999
 20
0.2046342167758537
 30
0.0
 11
1.263749998856477
 21
0.2046342167758537
 31
0.0
  0
SOLID
  5
7A5
330
668
100
AcDbEntity
  8
Dimension
 62
     0
100
AcDbTrace
 10
1.044999997712955
 20
0.2121342167758537
 30
0.0
 11
1.044999997712955
 21
0.1971342167758537
 31
0.0
 12
0.9999999977129556
 22
0.2046342167758537
 32
0.0
 13
0.9999999977129556
 23
0.2046342167758537
 33
0.0
  0
SOLID
  5
7A6
330
668
100
AcDbEntity
  8
Dimension
 62
     0
100
AcDbTrace
 10
1.354999999999999
 20
0.2121342167758537
 30
0.0
 11
1.354999999999999
 21
0.1971342167758537
 31
0.0
 12
1.399999999999999
 22
0.2046342167758537
 32
0.0
 13
1.399999999999999
 23
0.2046342167758537
 33
0.0
  0
MTEXT
  5
7A7
330
668
100
AcDbEntity
  8
Dimension
 62
     0
100
AcDbMText
 10
1.199999998856477
 20
0.2046342167758537
 30
0.0
 40
0.045
 41
0.0
 71
     5
 72
     1
  1
\A1;0.4
 73
     1
 44
1.0
1001
ACAD
1000
MTEXTBEGIN
1070
    73
1070
     1
1070
    44
1040
1.0
1070
    74
1070
     0
1000
MTEXTEND
  0
POINT
  5
7A8
330
668
100
AcDbEntity
  8
Defpoints
 62
     0
100
AcDbPoint
 10
0.9999999977129556
 20
-0.0000676320097783
 30
0.0
  0
POINT
  5
7A9
330
668
100
AcDbEntity
  8
Defpoints
 62
     0
100
AcDbPoint
 10
1.399999999999999
 20
-0.0000000000000003
 30
0.0
  0
POINT
  5
7AA
330
668
100
AcDbEntity
  8
Defpoints
 62
     0
100
AcDbPoint
 10
1.399999999999999
 20
0.2046342167758537
 30
0.0
  0
ENDBLK
  5
674
330
668
100
AcDbEntity
  8
0
100
AcDbBlockEnd
  0
BLOCK
  5
6A7
330
69C
100
AcDbEntity
  8
0
100
AcDbBlockBegin
  2
*D9
 70
     1
 10
0.0
 20
0.0
 30
0.0
  3
*D9
  1

  0
LINE
  5
7AC
330
69C
100
AcDbEntity
  8
Dimension
 62
     0
370
    -2
100
AcDbLine
 10
1.75
 20
0.0156249999999996
 30
0.0
 11
1.75
 21
0.2496342167758537
 31
0.0
  0
LINE
  5
7AD
330
69C
100
AcDbEntity
  8
Dimension
 62
     0
370
    -2
100
AcDbLine
 10
2.049999999999999
 20
0.01562500007552
 30
0.0
 11
2.049999999999999
 21
0.2496342167758537
 31
0.0
  0
LINE
  5
7AE
330
69C
100
AcDbEntity
  8
Dimension
 62
     0
370
    -2
100
AcDbLine
 10
1.794999999999999
 20
0.2046342167758537
 30
0.0
 11
1.836249999999999
 21
0.2046342167758537
 31
0.0
  0
LINE
  5
7AF
330
69C
100
AcDbEntity
  8
Dimension
 62
     0
370
    -2
100
AcDbLine
 10
2.004999999999999
 20
0.2046342167758537
 30
0.0
 11
1.963749999999999
 21
0.2046342167758537
 31
0.0
  0
SOLID
  5
7B0
330
69C
100
AcDbEntity
  8
Dimension
 62
     0
100
AcDbTrace
 10
1.794999999999999
 20
0.2121342167758537
 30
0.0
 11
1.794999999999999
 21
0.1971342167758537
 31
0.0
 12
1.75
 22
0.2046342167758537
 32
0.0
 13
1.75
 23
0.2046342167758537
 33
0.0
  0
SOLID
  5
7B1
330
69C
100
AcDbEntity
  8
Dimension
 62
     0
100
AcDbTrace
 10
2.004999999999999
 20
0.2121342167758537
 30
0.0
 11
2.004999999999999
 21
0.1971342167758537
 31
0.0
 12
2.049999999999999
 22
0.2046342167758537
 32
0.0
 13
2.049999999999999
 23
0.2046342167758537
 33
0.0
  0
MTEXT
  5
7B2
330
69C
100
AcDbEntity
  8
Dimension
 62
     0
100
AcDbMText
 10
1.9
 20
0.2046342167758537
 30
0.0
 40
0.045
 41
0.0
 71
     5
 72
     1
  1
\A1;0.3
 73
     1
 44
1.0
1001
ACAD
1000
MTEXTBEGIN
1070
    73
1070
     1
1070
    44
1040
1.0
1070
    74
1070
     0
1000
MTEXTEND
  0
POINT
  5
7B3
330
69C
100
AcDbEntity
  8
Defpoints
 62
     0
100
AcDbPoint
 10
1.75
 20
-0.0000000000000004
 30
0.0
  0
POINT
  5
7B4
330
69C
100
AcDbEntity
  8
Defpoints
 62
     0
100
AcDbPoint
 10
2.049999999999999
 20
0.00000000007552
 30
0.0
  0
POINT
  5
7B5
330
69C
100
AcDbEntity
  8
Defpoints
 62
     0
100
AcDbPoint
 10
2.049999999999999
 20
0.2046342167758537
 30
0.0
  0
ENDBLK
  5
6A8
330
69C
100
AcDbEntity
  8
0
100
AcDbBlockEnd
  0
BLOCK
  5
6DB
330
6D0
100
AcDbEntity
  8
0
100
AcDbBlockBegin
  2
*D10
 70
     1
 10
0.0
 20
0.0
 30
0.0
  3
*D10
  1

  0
LINE
  5
7B6
330
6D0
100
AcDbEntity
  8
Dimension
 62
     0
370
    -2
100
AcDbLine
 10
2.349842856234046
 20
0.0155573679927681
 30
0.0
 11
2.349842856234046
 21
0.2496342167758537
 31
0.0
  0
LINE
  5
7B7
330
6D0
100
AcDbEntity
  8
Dimension
 62
     0
370
    -2
100
AcDbLine
 10
2.599842856234046
 20
0.0155573680215257
 30
0.0
 11
2.599842856234046
 21
0.2496342167758537
 31
0.0
  0
LINE
  5
7B8
330
6D0
100
AcDbEntity
  8
Dimension
 62
     0
370
    -2
100
AcDbLine
 10
2.304842856234047
 20
0.2046342167758537
 30
0.0
 11
2.259842856234047
 21
0.2046342167758537
 31
0.0
  0
LINE
  5
7B9
330
6D0
100
AcDbEntity
  8
Dimension
 62
     0
370
    -2
100
AcDbLine
 10
2.644842856234046
 20
0.2046342167758537
 30
0.0
 11
2.689842856234046
 21
0.2046342167758537
 31
0.0
  0
SOLID
  5
7BA
330
6D0
100
AcDbEntity
  8
Dimension
 62
     0
100
AcDbTrace
 10
2.304842856234047
 20
0.2121342167758537
 30
0.0
 11
2.304842856234047
 21
0.1971342167758537
 31
0.0
 12
2.349842856234046
 22
0.2046342167758537
 32
0.0
 13
2.349842856234046
 23
0.2046342167758537
 33
0.0
  0
SOLID
  5
7BB
330
6D0
100
AcDbEntity
  8
Dimension
 62
     0
100
AcDbTrace
 10
2.644842856234046
 20
0.2121342167758537
 30
0.0
 11
2.644842856234046
 21
0.1971342167758537
 31
0.0
 12
2.599842856234046
 22
0.2046342167758537
 32
0.0
 13
2.599842856234046
 23
0.2046342167758537
 33
0.0
  0
MTEXT
  5
7BC
330
6D0
100
AcDbEntity
  8
Dimension
 62
     0
100
AcDbMText
 10
2.474842856234046
 20
0.2046342167758537
 30
0.0
 40
0.045
 41
0.0
 71
     5
 72
     1
  1
\A1;0.25
 73
     1
 44
1.0
1001
ACAD
1000
MTEXTBEGIN
1070
    73
1070
     1
1070
    44
1040
1.0
1070
    74
1070
     0
1000
MTEXTEND
  0
POINT
  5
7BD
330
6D0
100
AcDbEntity
  8
Defpoints
 62
     0
100
AcDbPoint
 10
2.349842856234046
 20
-0.0000676320072319
 30
0.0
  0
POINT
  5
7BE
330
6D0
100
AcDbEntity
  8
Defpoints
 62
     0
100
AcDbPoint
 10
2.599842856234046
 20
-0.0000676319784743
 30
0.0
  0
POINT
  5
7BF
330
6D0
100
AcDbEntity
  8
Defpoints
 62
     0
100
AcDbPoint
 10
2.599842856234046
 20
0.2046342167758537
 30
0.0
  0
ENDBLK
  5
6DC
330
6D0
100
AcDbEntity
  8
0
100
AcDbBlockEnd
  0
BLOCK
  5
710
330
704
100
AcDbEntity
  8
0
100
AcDbBlockBegin
  2
*D11
 70
     1
 10
0.0
 20
0.0
 30
0.0
  3
*D11
  1

  0
LINE
  5
7C0
330
704
100
AcDbEntity
  8
Dimension
 62
     0
370
    -2
100
AcDbLine
 10
2.899605955338157
 20
0.0155573679927678
 30
0.0
 11
2.899605955338157
 21
0.2496342167758537
 31
0.0
  0
LINE
  5
7C1
330
704
100
AcDbEntity
  8
Dimension
 62
     0
370
    -2
100
AcDbLine
 10
3.049605955338156
 20
0.0155573679889325
 30
0.0
 11
3.049605955338156
 21
0.2496342167758537
 31
0.0
  0
LINE
  5
7C2
330
704
100
AcDbEntity
  8
Dimension
 62
     0
370
    -2
100
AcDbLine
 10
2.944605955338157
 20
0.2046342167758537
 30
0.0
 11
3.004605955338156
 21
0.2046342167758537
 31
0.0
  0
LINE
  5
7C3
330
704
100
AcDbEntity
  8
Dimension
 62
     0
370
    -2
100
AcDbLine
 10
2.974605955338157
 20
0.2046342167758537
 30
0.0
 11
2.958479099730165
 21
0.3058842167758537
 31
0.0
  0
LINE
  5
7C4
330
704
100
AcDbEntity
  8
Dimension
 62
     0
370
    -2
100
AcDbLine
 10
2.958479099730165
 20
0.3058842167758537
 30
0.0
 11
2.913479099730165
 21
0.3058842167758537
 31
0.0
  0
MTEXT
  5
7C5
330
704
100
AcDbEntity
  8
Dimension
 62
     0
100
AcDbMText
 10
2.834729099730165
 20
0.3058842167758537
 30
0.0
 40
0.045
 41
0.0
 71
     5
 72
     1
  1
\A1;0.15
 73
     1
 44
1.0
1001
ACAD
1000
MTEXTBEGIN
1070
    73
1070
     1
1070
    44
1040
1.0
1070
    74
1070
     0
1000
MTEXTEND
  0
SOLID
  5
7C6
330
704
100
AcDbEntity
  8
Dimension
 62
     0
100
AcDbTrace
 10
2.944605955338157
 20
0.2121342167758537
 30
0.0
 11
2.944605955338157
 21
0.1971342167758537
 31
0.0
 12
2.899605955338157
 22
0.2046342167758537
 32
0.0
 13
2.899605955338157
 23
0.2046342167758537
 33
0.0
  0
SOLID
  5
7C7
330
704
100
AcDbEntity
  8
Dimension
 62
     0
100
AcDbTrace
 10
3.004605955338156
 20
0.2121342167758537
 30
0.0
 11
3.004605955338156
 21
0.1971342167758537
 31
0.0
 12
3.049605955338156
 22
0.2046342167758537
 32
0.0
 13
3.049605955338156
 23
0.2046342167758537
 33
0.0
  0
POINT
  5
7C8
330
704
100
AcDbEntity
  8
Defpoints
 62
     0
100
AcDbPoint
 10
2.899605955338157
 20
-0.0000676320072322
 30
0.0
  0
POINT
  5
7C9
330
704
100
AcDbEntity
  8
Defpoints
 62
     0
100
AcDbPoint
 10
3.049605955338156
 20
-0.0000676320110675
 30
0.0
  0
POINT
  5
7CA
330
704
100
AcDbEntity
  8
Defpoints
 62
     0
100
AcDbPoint
 10
3.049605955338156
 20
0.2046342167758537
 30
0.0
  0
ENDBLK
  5
711
330
704
100
AcDbEntity
  8
0
100
AcDbBlockEnd
  0
BLOCK
  5
737
330
72E
100
AcDbEntity
  8
0
100
AcDbBlockBegin
  2
*D12
 70
     1
 10
0.0
 20
0.0
 30
0.0
  3
*D12
  1

  0
LINE
  5
76B
330
72E
100
AcDbEntity
  8
Dimension
 62
     0
370
    -2
100
AcDbLine
 10
0.5606899116344615
 20
1.18927088765003
 30
0.0
 11
0.6244399116344616
 21
1.18927088765003
 31
0.0
  0
LINE
  5
76C
330
72E
100
AcDbEntity
  8
Dimension
 62
     0
370
    -2
100
AcDbLine
 10
0.6244399116344616
 20
1.18927088765003
 30
0.0
 11
0.7771887947913867
 21
1.025924885983391
 31
0.0
  0
MTEXT
  5
76D
330
72E
100
AcDbEntity
  8
Dimension
 62
     0
100
AcDbMText
 10
0.4331899116344616
 20
1.18927088765003
 30
0.0
 40
0.045
 41
0.0
 71
     5
 72
     1
  1
\A1;R0.025
 73
     1
 44
1.0
1001
ACAD
1000
MTEXTBEGIN
1070
    73
1070
     1
1070
    44
1040
1.0
1070
    74
1070
     0
1000
MTEXTEND
  0
SOLID
  5
76E
330
72E
100
AcDbEntity
  8
Dimension
 62
     0
100
AcDbTrace
 10
0.7826668118415297
 20
1.031047515112885
 30
0.0
 11
0.7717107777412436
 21
1.020802256853897
 31
0.0
 12
0.8079245695683519
 22
0.9930567836825339
 32
0.0
 13
0.8079245695683519
 23
0.9930567836825339
 33
0.0
  0
LINE
  5
76F
330
72E
100
AcDbEntity
  8
Dimension
 62
     0
370
    -2
100
AcDbLine
 10
0.8024999999999995
 20
0.974796726848724
 30
0.0
 11
0.8474999999999992
 21
0.974796726848724
 31
0.0
  0
LINE
  5
770
330
72E
100
AcDbEntity
  8
Dimension
 62
     0
370
    -2
100
AcDbLine
 10
0.8249999999999991
 20
0.952296726848724
 30
0.0
 11
0.8249999999999992
 21
0.997296726848724
 31
0.0
  0
POINT
  5
771
330
72E
100
AcDbEntity
  8
Defpoints
 62
     0
100
AcDbPoint
 10
0.8079245695683519
 20
0.9930567836825339
 30
0.0
  0
POINT
  5
772
330
72E
100
AcDbEntity
  8
Defpoints
 62
     0
100
AcDbPoint
 10
0.8249999999999992
 20
0.974796726848724
 30
0.0
  0
ENDBLK
  5
738
330
72E
100
AcDbEntity
  8
0
100
AcDbBlockEnd
  0
ENDSEC
  0
SECTION
  2
ENTITIES
  0
CIRCLE
  5
17F
330
1F
100
AcDbEntity
  8
Object
100
AcDbCircle
 10
0.0
 20
0.0
 30
0.0
 40
1.0
  0
ELLIPSE
  5
189
330
1F
100
AcDbEntity
  8
Object
100
AcDbEllipse
 10
-0.0000000000000001
 20
0.0
 30
0.0
 11
-1.399999999999999
 21
0.0000000000000002
 31
0.0
210
0.0
220
0.0
230
1.0
 40
0.7857142857142858
 41
0.0
 42
6.283185307179586
  0
ELLIPSE
  5
1A5
330
1F
100
AcDbEntity
  8
Object
100
AcDbEllipse
 10
-0.8
 20
0.0
 30
0.0
 11
-1.249999999999999
 21
0.0000000000000002
 31
0.0
210
0.0
220
0.0
230
1.0
 40
0.8000000000000001
 41
4.73271560791762
 42
7.833655006441554
  0
LINE
  5
1AD
330
1F
100
AcDbEntity
  8
Object
100
AcDbLine
 10
-0.8
 20
-0.9746438629766256
 30
0.0
 11
-0.8
 21
-0.9747791269865224
 31
0.0
  0
LINE
  5
221
330
1F
100
AcDbEntity
  8
Object
100
AcDbLine
 10
-0.7999999999999999
 20
0.9746438629720595
 30
0.0
 11
-0.7999999999999999
 21
0.9747791269860401
 31
0.0
  0
ELLIPSE
  5
294
330
1F
100
AcDbEntity
  8
Object
100
AcDbEllipse
 10
-1.499999999999996
 20
-0.0000676320072313
 30
0.0
 11
-1.09984285623405
 21
0.0
 31
0.0
210
0.0
220
0.0
230
1.0
 40
0.8181558402944801
 41
4.735552342870962
 42
7.830818271490487
  0
LINE
  5
297
330
1F
100
AcDbEntity
  8
Object
100
AcDbLine
 10
-1.499999999999996
 20
0.8745383233320298
 30
0.0
 11
-1.499999999999996
 21
0.87441794426247
 31
0.0
  0
LINE
  5
298
330
1F
100
AcDbEntity
  8
Object
100
AcDbLine
 10
-1.499999999999997
 20
-0.8746735874318201
 30
0.0
 11
-1.499999999999997
 21
-0.8745532082769321
 31
0.0
  0
ARC
  5
299
330
1F
100
AcDbEntity
  8
Object
100
AcDbCircle
 10
-1.499999999999996
 20
-0.000067632007231
 30
0.0
 40
0.8498428562340501
100
AcDbArc
 50
91.63753924823959
 51
268.3624607517604
  0
ARC
  5
29B
330
1F
100
AcDbEntity
  8
Object
100
AcDbCircle
 10
-1.524999999999964
 20
0.874538323330929
 30
0.0
 40
0.025
100
AcDbArc
 50
0.0000000025187449
 51
91.0858902911571
  0
ARC
  5
29C
330
1F
100
AcDbEntity
  8
Object
100
AcDbCircle
 10
-1.524999999999996
 20
0.87441794426247
 30
0.0
 40
0.025
100
AcDbArc
 50
271.63753924824
 51
0.0000000000002544
  0
ARC
  5
29D
330
1F
100
AcDbEntity
  8
Object
100
AcDbCircle
 10
-1.524999999999996
 20
-0.8745532082769321
 30
0.0
 40
0.025
100
AcDbArc
 50
0.0
 51
88.362460751761
  0
ARC
  5
29E
330
1F
100
AcDbEntity
  8
Object
100
AcDbCircle
 10
-1.524999999998735
 20
-0.8746735873880801
 30
0.0
 40
0.025
100
AcDbArc
 50
268.9141097099159
 51
359.9999998997532
  0
ELLIPSE
  5
2AB
330
1F
100
AcDbEntity
  8
Object
100
AcDbEllipse
 10
-2.149999999999996
 20
-0.000067632007231
 30
0.0
 11
-0.8996059553381604
 21
0.0
 31
0.0
210
0.0
220
0.0
230
1.0
 40
0.8888402200912395
 41
4.740886663335965
 42
7.825483951023523
  0
LINE
  5
2C7
330
1F
100
AcDbEntity
  8
Object
100
AcDbLine
 10
-2.149999999999996
 20
0.7742216786582797
 30
0.0
 11
-2.149999999999996
 21
0.7741347872897794
 31
0.0
  0
LINE
  5
2C8
330
1F
100
AcDbEntity
  8
Object
100
AcDbLine
 10
-2.149999999999996
 20
-0.7743569426812523
 30
0.0
 11
-2.149999999999996
 21
-0.7742700513042415
 31
0.0
  0
ARC
  5
2C9
330
1F
100
AcDbEntity
  8
Object
100
AcDbCircle
 10
-2.149999999999996
 20
-0.000067632007231
 30
0.0
 40
0.7496059553381604
100
AcDbArc
 50
91.84951234653638
 51
268.1504876534636
  0
ARC
  5
2CB
330
1F
100
AcDbEntity
  8
Object
100
AcDbCircle
 10
-2.174999999999996
 20
0.7742216786582797
 30
0.0
 40
0.025
100
AcDbArc
 50
0.0
 51
91.45137809256215
  0
ARC
  5
2CC
330
1F
100
AcDbEntity
  8
Object
100
AcDbCircle
 10
-2.174999999999996
 20
0.7741347872897794
 30
0.0
 40
0.025
100
AcDbArc
 50
271.8495123465365
 51
0.0
  0
ARC
  5
2CD
330
1F
100
AcDbEntity
  8
Object
100
AcDbCircle
 10
-2.174999999999996
 20
-0.7742700513042415
 30
0.0
 40
0.025
100
AcDbArc
 50
0.0
 51
88.1504876534635
  0
ARC
  5
2CE
330
1F
100
AcDbEntity
  8
Object
100
AcDbCircle
 10
-2.174999999999857
 20
-0.7743569426770005
 30
0.0
 40
0.025
100
AcDbArc
 50
268.5486219075224
 51
359.999999990254
  0
LINE
  5
357
330
1F
100
AcDbEntity
  8
Center
 48
0.25
100
AcDbLine
 10
0.0000000000000003
 20
1.1
 30
0.0
 11
-0.0000000000000003
 21
-1.1
 31
0.0
  0
LINE
  5
358
330
1F
100
AcDbEntity
  8
Center
 48
0.25
100
AcDbLine
 10
-3.049605955338157
 20
-0.000067632007231
 30
0.0
 11
3.049605955338156
 21
-0.0000676320110675
 31
0.0
  0
LINE
  5
3E8
330
1F
100
AcDbEntity
  8
Center
 48
0.25
100
AcDbLine
 10
-0.7999999999999999
 20
0.9746438629720595
 30
0.0
 11
-0.799999999999994
 21
-0.9747791269865215
 31
0.0
  0
LINE
  5
3E9
330
1F
100
AcDbEntity
  8
Center
 48
0.25
100
AcDbLine
 10
-1.499999999999996
 20
0.87441794426247
 30
0.0
 11
-1.499999999998735
 21
-0.8746735874318209
 31
0.0
  0
LINE
  5
3EA
330
1F
100
AcDbEntity
  8
Center
 48
0.25
100
AcDbLine
 10
-2.149999999999996
 20
0.7741347872897794
 30
0.0
 11
-2.149999999999996
 21
-0.7742700513042415
 31
0.0
  0
ARC
  5
4BF
330
1F
100
AcDbEntity
  8
Object
100
AcDbCircle
 10
-0.8
 20
0.0000000000000001
 30
0.0
 40
0.9499999999999998
100
AcDbArc
 50
91.46928358135379
 51
268.5307164186462
  0
LINE
  5
4C7
330
1F
100
AcDbEntity
  8
Object
100
AcDbLine
 10
-0.8
 20
-0.9747967268488926
 30
0.0
 11
-0.8
 21
-0.9746794344808961
 31
0.0
  0
LINE
  5
4CE
330
1F
100
AcDbEntity
  8
Object
100
AcDbLine
 10
-0.8
 20
0.9746794344808963
 30
0.0
 11
-0.8
 21
0.974796726848802
 31
0.0
  0
ARC
  5
4DA
330
1F
100
AcDbEntity
  8
Object
100
AcDbCircle
 10
-0.8249999999999982
 20
0.974796726848724
 30
0.0
 40
0.025
100
AcDbArc
 50
0.0000000001788744
 51
90.93175017025561
  0
ARC
  5
4DB
330
1F
100
AcDbEntity
  8
Object
100
AcDbCircle
 10
-0.825
 20
0.9746794344808963
 30
0.0
 40
0.025
100
AcDbArc
 50
271.4692835813535
 51
0.0
  0
ARC
  5
4DE
330
1F
100
AcDbEntity
  8
Object
100
AcDbCircle
 10
-0.8250000000000001
 20
-0.9746794344808961
 30
0.0
 40
0.025
100
AcDbArc
 50
0.0
 51
88.53071641864648
  0
ARC
  5
4DF
330
1F
100
AcDbEntity
  8
Object
100
AcDbCircle
 10
-0.8249999999999964
 20
-0.9747967268487689
 30
0.0
 40
0.025
100
AcDbArc
 50
269.0682498297449
 51
359.9999999997168
  0
ELLIPSE
  5
4E9
330
1F
100
AcDbEntity
  8
Object
100
AcDbEllipse
 10
0.8
 20
-0.0000000000000004
 30
0.0
 11
1.249999999999999
 21
-0.0000000000000005
 31
0.0
210
0.0
220
0.0
230
-1.0
 40
0.8000000000000001
 41
4.73271560791762
 42
7.833655006441554
  0
LINE
  5
4EA
330
1F
100
AcDbEntity
  8
Object
100
AcDbLine
 10
0.8000000000000003
 20
0.9746438629720589
 30
0.0
 11
0.8000000000000003
 21
0.9747791269860396
 31
0.0
  0
LINE
  5
4EB
330
1F
100
AcDbEntity
  8
Object
100
AcDbLine
 10
0.7999999999999995
 20
-0.9746438629766259
 30
0.0
 11
0.7999999999999995
 21
-0.9747791269865228
 31
0.0
  0
ELLIPSE
  5
4EC
330
1F
100
AcDbEntity
  8
Object
100
AcDbEllipse
 10
1.499999999999996
 20
-0.0000676320072321
 30
0.0
 11
1.09984285623405
 21
-0.0000000000000006
 31
0.0
210
0.0
220
0.0
230
-1.0
 40
0.8181558402944801
 41
4.735552342870962
 42
7.830818271490487
  0
LINE
  5
4ED
330
1F
100
AcDbEntity
  8
Object
100
AcDbLine
 10
1.499999999999997
 20
0.8745383233320289
 30
0.0
 11
1.499999999999997
 21
0.8744179442624691
 31
0.0
  0
LINE
  5
4EE
330
1F
100
AcDbEntity
  8
Object
100
AcDbLine
 10
1.499999999999996
 20
-0.8746735874318209
 30
0.0
 11
1.499999999999996
 21
-0.8745532082769329
 31
0.0
  0
ARC
  5
4EF
330
1F
100
AcDbEntity
  8
Object
100
AcDbCircle
 10
1.499999999999996
 20
-0.0000676320072319
 30
0.0
 40
0.8498428562340501
100
AcDbArc
 50
271.6375392482395
 51
88.36246075176038
  0
ARC
  5
4F0
330
1F
100
AcDbEntity
  8
Object
100
AcDbCircle
 10
1.524999999999996
 20
-0.8745532082769329
 30
0.0
 40
0.025
100
AcDbArc
 50
91.63753924823899
 51
180.0
  0
ARC
  5
4F1
330
1F
100
AcDbEntity
  8
Object
100
AcDbCircle
 10
1.524999999999996
 20
0.8744179442624691
 30
0.0
 40
0.025
100
AcDbArc
 50
179.9999999999997
 51
268.36246075176
  0
ARC
  5
4F2
330
1F
100
AcDbEntity
  8
Object
100
AcDbCircle
 10
1.524999999999965
 20
0.8745383233309281
 30
0.0
 40
0.025
100
AcDbArc
 50
88.91410970884285
 51
179.9999999974812
  0
ARC
  5
4F3
330
1F
100
AcDbEntity
  8
Object
100
AcDbCircle
 10
1.524999999998735
 20
-0.874673587388081
 30
0.0
 40
0.025
100
AcDbArc
 50
180.0000001002467
 51
271.0858902900842
  0
ELLIPSE
  5
4F4
330
1F
100
AcDbEntity
  8
Object
100
AcDbEllipse
 10
2.149999999999996
 20
-0.0000676320072322
 30
0.0
 11
0.8996059553381604
 21
-0.0000000000000005
 31
0.0
210
0.0
220
0.0
230
-1.0
 40
0.8888402200912395
 41
4.740886663335965
 42
7.825483951023523
  0
LINE
  5
4F5
330
1F
100
AcDbEntity
  8
Object
100
AcDbLine
 10
2.149999999999997
 20
0.7742216786582784
 30
0.0
 11
2.149999999999997
 21
0.7741347872897782
 31
0.0
  0
LINE
  5
4F6
330
1F
100
AcDbEntity
  8
Object
100
AcDbLine
 10
2.149999999999996
 20
-0.7743569426812535
 30
0.0
 11
2.149999999999996
 21
-0.7742700513042428
 31
0.0
  0
ARC
  5
4F7
330
1F
100
AcDbEntity
  8
Object
100
AcDbCircle
 10
2.149999999999996
 20
-0.0000676320072322
 30
0.0
 40
0.7496059553381604
100
AcDbArc
 50
271.8495123465364
 51
88.15048765346359
  0
ARC
  5
4F8
330
1F
100
AcDbEntity
  8
Object
100
AcDbCircle
 10
2.174999999999996
 20
-0.7742700513042428
 30
0.0
 40
0.025
100
AcDbArc
 50
91.84951234653645
 51
180.0
  0
ARC
  5
4F9
330
1F
100
AcDbEntity
  8
Object
100
AcDbCircle
 10
2.174999999999997
 20
0.7741347872897782
 30
0.0
 40
0.025
100
AcDbArc
 50
180.0
 51
268.1504876534635
  0
ARC
  5
4FA
330
1F
100
AcDbEntity
  8
Object
100
AcDbCircle
 10
2.174999999999997
 20
0.7742216786582784
 30
0.0
 40
0.025
100
AcDbArc
 50
88.54862190743784
 51
180.0
  0
ARC
  5
4FB
330
1F
100
AcDbEntity
  8
Object
100
AcDbCircle
 10
2.174999999999857
 20
-0.7743569426770016
 30
0.0
 40
0.025
100
AcDbArc
 50
180.0000000097459
 51
271.4513780924776
  0
LINE
  5
4FC
330
1F
100
AcDbEntity
  8
Center
 48
0.25
100
AcDbLine
 10
0.8000000000000003
 20
0.9746438629720589
 30
0.0
 11
0.7999999999999935
 21
-0.9747791269865221
 31
0.0
  0
LINE
  5
4FD
330
1F
100
AcDbEntity
  8
Center
 48
0.25
100
AcDbLine
 10
1.499999999999997
 20
0.8744179442624691
 30
0.0
 11
1.499999999998735
 21
-0.8746735874318218
 31
0.0
  0
LINE
  5
4FE
330
1F
100
AcDbEntity
  8
Center
 48
0.25
100
AcDbLine
 10
2.149999999999997
 20
0.7741347872897782
 30
0.0
 11
2.149999999999996
 21
-0.7742700513042428
 31
0.0
  0
ARC
  5
4FF
330
1F
100
AcDbEntity
  8
Object
100
AcDbCircle
 10
0.8
 20
-0.0000000000000004
 30
0.0
 40
0.9499999999999998
100
AcDbArc
 50
271.4692835813538
 51
88.53071641864618
  0
ARC
  5
500
330
1F
100
AcDbEntity
  8
Object
100
AcDbCircle
 10
0.8249999999999996
 20
-0.9746794344808966
 30
0.0
 40
0.025
100
AcDbArc
 50
91.46928358135351
 51
180.0
  0
ARC
  5
501
330
1F
100
AcDbEntity
  8
Object
100
AcDbCircle
 10
0.8250000000000005
 20
0.9746794344808959
 30
0.0
 40
0.025
100
AcDbArc
 50
180.0
 51
268.5307164186465
  0
LINE
  5
502
330
1F
100
AcDbEntity
  8
Object
100
AcDbLine
 10
0.7999999999999995
 20
-0.9747967268488931
 30
0.0
 11
0.7999999999999995
 21
-0.9746794344808966
 31
0.0
  0
LINE
  5
503
330
1F
100
AcDbEntity
  8
Object
100
AcDbLine
 10
0.8000000000000005
 20
0.9746794344808959
 30
0.0
 11
0.8000000000000005
 21
0.9747967268488014
 31
0.0
  0
ARC
  5
504
330
1F
100
AcDbEntity
  8
Object
100
AcDbCircle
 10
0.8249999999999989
 20
0.9747967268487235
 30
0.0
 40
0.025
100
AcDbArc
 50
89.06824982974436
 51
179.9999999998211
  0
ARC
  5
505
330
1F
100
AcDbEntity
  8
Object
100
AcDbCircle
 10
0.8249999999999959
 20
-0.9747967268487695
 30
0.0
 40
0.025
100
AcDbArc
 50
180.0000000002832
 51
270.9317501702551
  0
ENDSEC
  0
SECTION
  2
OBJECTS
  0
DICTIONARY
  5
C
330
0
100
AcDbDictionary
281
     1
  3
ACAD_COLOR
350
73
  3
ACAD_GROUP
350
D
  3
ACAD_LAYOUT
350
1A
  3
ACAD_MATERIAL
350
72
  3
ACAD_MLEADERSTYLE
350
877
  3
ACAD_MLINESTYLE
350
17
  3
ACAD_PLOTSETTINGS
350
19
  3
ACAD_PLOTSTYLENAME
350
E
  3
ACAD_SCALELIST
350
855
  3
ACAD_TABLESTYLE
350
86
  3
ACAD_VISUALSTYLE
350
841
  3
ACDB_RECOMPOSE_DATA
350
88E
  3
AcDbVariableDictionary
350
66
  3
DWGPROPS
350
88F
  0
DICTIONARY
  5
1A1
330
2
100
AcDbDictionary
280
     1
281
     1
  3
ACAD_LAYERFILTERS
360
826
  3
ACLYDICTIONARY
360
825
  0
DICTIONARY
  5
87D
330
10
100
AcDbDictionary
280
     1
281
     1
  3
ADSK_XREC_LAYER_RECONCILED
360
87E
  0
DICTIONARY
  5
87F
330
19B
100
AcDbDictionary
280
     1
281
     1
  3
ADSK_XREC_LAYER_RECONCILED
360
880
  0
DICTIONARY
  5
881
330
19D
100
AcDbDictionary
280
     1
281
     1
  3
ADSK_XREC_LAYER_RECONCILED
360
882
  0
DICTIONARY
  5
883
330
3EE
100
AcDbDictionary
280
     1
281
     1
  3
ADSK_XREC_LAYER_RECONCILED
360
884
  0
DICTIONARY
  5
885
330
819
100
AcDbDictionary
280
     1
281
     1
  3
ADSK_XREC_LAYER_RECONCILED
360
886
  0
DICTIONARY
  5
AA
330
1F
100
AcDbDictionary
280
     1
281
     1
  3
ACAD_SORTENTS
360
AB
  0
DICTIONARY
  5
73
102
{ACAD_REACTORS
330
C
102
}
330
C
100
AcDbDictionary
281
     1
  0
DICTIONARY
  5
D
102
{ACAD_REACTORS
330
C
102
}
330
C
100
AcDbDictionary
281
     1
  0
DICTIONARY
  5
1A
102
{ACAD_REACTORS
330
C
102
}
330
C
100
AcDbDictionary
281
     1
  3
Layout1
350
59
  3
Layout2
350
5E
  3
Model
350
22
  0
DICTIONARY
  5
72
102
{ACAD_REACTORS
330
C
102
}
330
C
100
AcDbDictionary
281
     1
  3
ByBlock
350
831
  3
ByLayer
350
829
  3
Global
350
839
  0
DICTIONARY
  5
877
102
{ACAD_REACTORS
330
C
102
}
330
C
100
AcDbDictionary
281
     1
  3
Standard
350
878
  0
DICTIONARY
  5
17
102
{ACAD_REACTORS
330
C
102
}
330
C
100
AcDbDictionary
281
     1
  3
Standard
350
18
  0
DICTIONARY
  5
19
102
{ACAD_REACTORS
330
C
102
}
330
C
100
AcDbDictionary
281
     1
  0
ACDBDICTIONARYWDFLT
  5
E
102
{ACAD_REACTORS
330
C
102
}
330
C
100
AcDbDictionary
281
     1
  3
Normal
350
F
100
AcDbDictionaryWithDefault
340
F
  0
DICTIONARY
  5
855
102
{ACAD_REACTORS
330
C
102
}
330
C
100
AcDbDictionary
281
     1
  3
A0
350
856
  3
A1
350
857
  3
A2
350
858
  3
A3
350
859
  3
A4
350
85A
  3
A5
350
85B
  3
A6
350
85C
  3
A7
350
85D
  3
A8
350
85E
  3
A9
350
85F
  3
B0
350
860
  3
B1
350
861
  3
B2
350
862
  3
B3
350
863
  3
B4
350
864
  3
B5
350
865
  3
B6
350
866
  3
B7
350
867
  3
B8
350
868
  3
B9
350
869
  3
C0
350
86A
  3
C1
350
86B
  3
C2
350
86C
  3
C3
350
86D
  3
C4
350
86E
  3
C5
350
86F
  3
C6
350
870
  3
C7
350
871
  3
C8
350
872
  3
C9
350
873
  3
D0
350
874
  3
D1
350
875
  3
D2
350
876
  0
DICTIONARY
  5
86
102
{ACAD_REACTORS
330
C
102
}
330
C
100
AcDbDictionary
281
     1
  3
Standard
350
87
  0
DICTIONARY
  5
841
102
{ACAD_REACTORS
330
C
102
}
330
C
100
AcDbDictionary
281
     1
  3
2dWireframe
350
847
  3
3D Hidden
350
849
  3
3dWireframe
350
848
  3
Basic
350
846
  3
Brighten
350
84D
  3
ColorChange
350
851
  3
Conceptual
350
84A
  3
Dim
350
84C
  3
EdgeColorOff
350
854
  3
Facepattern
350
850
  3
Flat
350
842
  3
FlatWithEdges
350
843
  3
Gouraud
350
844
  3
GouraudWithEdges
350
845
  3
JitterOff
350
852
  3
Linepattern
350
84F
  3
OverhangOff
350
853
  3
Realistic
350
84B
  3
Thicken
350
84E
  0
XRECORD
  5
88E
102
{ACAD_REACTORS
330
C
102
}
330
C
100
AcDbXrecord
280
     1
 90
        1
330
87
  0
DICTIONARY
  5
66
102
{ACAD_REACTORS
330
C
102
}
330
C
100
AcDbDictionary
281
     1
  3
CANNOSCALE
350
888
  3
CMLEADERSTYLE
350
887
  3
CTABLESTYLE
350
8D
  3
DIMASSOC
350
67
  3
HIDETEXT
350
6B
  3
INDEXCTL
350
88A
  3
SORTENTS
350
889
  3
XCLIPFRAME
350
88B
  0
XRECORD
  5
88F
102
{ACAD_REACTORS
330
C
102
}
330
C
100
AcDbXrecord
280
     1
  1
DWGPROPS COOKIE
  2

  3

  4

  6

  7

  8
Ydnar
  9

300
=
301
=
302
=
303
=
304
=
305
=
306
=
307
=
308
=
309
=
 40
0.1053459027777778
 41
2453177.061222037
 42
2457378.655287616
  1

 90
        0
  0
DICTIONARY
  5
826
102
{ACAD_REACTORS
330
1A1
102
}
330
1A1
100
AcDbDictionary
281
     1
  0
DICTIONARY
  5
825
102
{ACAD_REACTORS
330
1A1
102
}
330
1A1
100
AcDbDictionary
281
     1
1001
ACAD
1000
<All
  0
XRECORD
  5
87E
102
{ACAD_REACTORS
330
87D
102
}
330
87D
100
AcDbXrecord
280
     1
290
     1
  0
XRECORD
  5
880
102
{ACAD_REACTORS
330
87F
102
}
330
87F
100
AcDbXrecord
280
     1
290
     1
  0
XRECORD
  5
882
102
{ACAD_REACTORS
330
881
102
}
330
881
100
AcDbXrecord
280
     1
290
     1
  0
XRECORD
  5
884
102
{ACAD_REACTORS
330
883
102
}
330
883
100
AcDbXrecord
280
     1
290
     1
  0
XRECORD
  5
886
102
{ACAD_REACTORS
330
885
102
}
330
885
100
AcDbXrecord
280
     1
290
     1
  0
SORTENTSTABLE
  5
AB
102
{ACAD_REACTORS
330
AA
102
}
330
AA
100
AcDbSortentsTable
330
1F
331
221
  5
29B
331
29D
  5
2C9
331
29E
  5
2CD
331
500
  5
69B
331
501
  5
6CF
331
502
  5
703
331
503
  5
72D
331
4F0
  5
4FA
331
504
  5
80E
331
4F1
  5
4FB
331
505
  5
80F
331
4F2
  5
4FC
331
1A5
  5
299
331
4F3
  5
4FD
331
4F4
  5
4FF
331
4F5
  5
500
331
4DA
  5
4EF
331
17F
  5
220
331
4F6
  5
501
331
4DB
  5
4EC
331
4F7
  5
502
331
4F8
  5
503
331
4F9
  5
504
331
4DE
  5
4EB
331
4FA
  5
505
331
4DF
  5
4F0
331
4FB
  5
51E
331
4FC
  5
619
331
358
  5
4C0
331
4E9
  5
4F2
331
4FD
  5
633
331
4EA
  5
4F3
331
4FE
  5
64D
331
4C7
  5
4ED
331
4EB
  5
4F4
331
4FF
  5
667
331
4EC
  5
4F6
331
2C8
  5
3E8
331
4ED
  5
4F7
331
2C9
  5
3E9
331
4EE
  5
4F8
331
4EF
  5
4F9
331
2CB
  5
45D
331
2CC
  5
43F
331
3E8
  5
4C7
331
2CD
  5
3EA
331
4CE
  5
4EE
331
3E9
  5
4DA
331
2CE
  5
47B
331
2AB
  5
357
331
3EA
  5
4DB
331
4BF
  5
4EA
331
294
  5
29E
331
189
  5
294
331
297
  5
2AB
331
357
  5
4BF
331
298
  5
2C7
331
1AD
  5
29C
331
299
  5
2C8
331
29B
  5
2CC
331
2C7
  5
358
331
29C
  5
2CB
  0
LAYOUT
  5
59
102
{ACAD_XDICTIONARY
360
892
102
}
102
{ACAD_REACTORS
330
1A
102
}
330
1A
100
AcDbPlotSettings
  1

  2
None
  4

  6

 40
0.0
 41
0.0
 42
0.0
 43
0.0
 44
0.0
 45
0.0
 46
0.0
 47
0.0
 48
0.0
 49
0.0
140
0.0
141
0.0
142
1.0
143
1.0
 70
   688
 72
     0
 73
     0
 74
     5
  7

 75
    16
147
1.0
148
0.0
149
0.0
100
AcDbLayout
  1
Layout1
 70
     1
 71
     1
 10
0.0
 20
0.0
 11
12.0
 21
9.0
 12
0.0
 22
0.0
 32
0.0
 14
0.0
 24
0.0
 34
0.0
 15
0.0
 25
0.0
 35
0.0
146
0.0
 13
0.0
 23
0.0
 33
0.0
 16
1.0
 26
0.0
 36
0.0
 17
0.0
 27
1.0
 37
0.0
 76
     0
330
58
  0
LAYOUT
  5
5E
102
{ACAD_XDICTIONARY
360
894
102
}
102
{ACAD_REACTORS
330
1A
102
}
330
1A
100
AcDbPlotSettings
  1

  2
None
  4

  6

 40
0.0
 41
0.0
 42
0.0
 43
0.0
 44
0.0
 45
0.0
 46
0.0
 47
0.0
 48
0.0
 49
0.0
140
0.0
141
0.0
142
1.0
143
1.0
 70
   688
 72
     0
 73
     0
 74
     5
  7

 75
    16
147
1.0
148
0.0
149
0.0
100
AcDbLayout
  1
Layout2
 70
     1
 71
     2
 10
0.0
 20
0.0
 11
12.0
 21
9.0
 12
0.0
 22
0.0
 32
0.0
 14
0.0
 24
0.0
 34
0.0
 15
0.0
 25
0.0
 35
0.0
146
0.0
 13
0.0
 23
0.0
 33
0.0
 16
1.0
 26
0.0
 36
0.0
 17
0.0
 27
1.0
 37
0.0
 76
     0
330
5D
  0
LAYOUT
  5
22
102
{ACAD_XDICTIONARY
360
890
102
}
102
{ACAD_REACTORS
330
1A
102
}
330
1A
100
AcDbPlotSettings
  1

  2
none_device
  4
ANSI_A_(8.50_x_11.00_Inches)
  6

 40
6.349999904632568
 41
19.04999923706055
 42
6.350006103515625
 43
19.04998779296875
 44
215.8999938964844
 45
279.3999938964844
 46
0.0
 47
0.0
 48
0.0
 49
0.0
140
0.0
141
0.0
142
1.0
143
2.584895464708373
 70
 11952
 72
     0
 73
     1
 74
     0
  7

 75
     0
147
0.3868628397755418
148
0.0
149
0.0
100
AcDbLayout
  1
Model
 70
     1
 71
     0
 10
0.0
 20
0.0
 11
12.0
 21
9.0
 12
0.0
 22
0.0
 32
0.0
 14
0.0
 24
0.0
 34
0.0
 15
0.0
 25
0.0
 35
0.0
146
0.0
 13
0.0
 23
0.0
 33
0.0
 16
1.0
 26
0.0
 36
0.0
 17
0.0
 27
1.0
 37
0.0
 76
     0
330
1F
331
827
  0
MATERIAL
  5
831
102
{ACAD_XDICTIONARY
360
832
102
}
102
{ACAD_REACTORS
330
72
102
}
330
72
100
AcDbMaterial
  1
ByBlock
 72
     0
 43
0.0208333333333333
 43
0.0
 43
0.0
 43
0.0
 43
0.0
 43
0.0208333333333333
 43
0.0
 43
0.0
 43
0.0
 43
0.0
 43
1.0
 43
0.0
 43
0.0
 43
0.0
 43
0.0
 43
1.0
 77
     0
 47
0.0208333333333333
 47
0.0
 47
0.0
 47
0.0
 47
0.0
 47
0.0208333333333333
 47
0.0
 47
0.0
 47
0.0
 47
0.0
 47
1.0
 47
0.0
 47
0.0
 47
0.0
 47
0.0
 47
1.0
171
     0
 49
0.0208333333333333
 49
0.0
 49
0.0
 49
0.0
 49
0.0
 49
0.0208333333333333
 49
0.0
 49
0.0
 49
0.0
 49
0.0
 49
1.0
 49
0.0
 49
0.0
 49
0.0
 49
0.0
 49
1.0
175
     0
142
0.0208333333333333
142
0.0
142
0.0
142
0.0
142
0.0
142
0.0208333333333333
142
0.0
142
0.0
142
0.0
142
0.0
142
1.0
142
0.0
142
0.0
142
0.0
142
0.0
142
1.0
179
     0
144
0.0208333333333333
144
0.0
144
0.0
144
0.0
144
0.0
144
0.0208333333333333
144
0.0
144
0.0
144
0.0
144
0.0
144
1.0
144
0.0
144
0.0
144
0.0
144
0.0
144
1.0
147
0.0208333333333333
147
0.0
147
0.0
147
0.0
147
0.0
147
0.0208333333333333
147
0.0
147
0.0
147
0.0
147
0.0
147
1.0
147
0.0
147
0.0
147
0.0
147
0.0
147
1.0
  0
MATERIAL
  5
829
102
{ACAD_XDICTIONARY
360
82A
102
}
102
{ACAD_REACTORS
330
72
102
}
330
72
100
AcDbMaterial
  1
ByLayer
 72
     0
 43
0.0208333333333333
 43
0.0
 43
0.0
 43
0.0
 43
0.0
 43
0.0208333333333333
 43
0.0
 43
0.0
 43
0.0
 43
0.0
 43
1.0
 43
0.0
 43
0.0
 43
0.0
 43
0.0
 43
1.0
 77
     0
 47
0.0208333333333333
 47
0.0
 47
0.0
 47
0.0
 47
0.0
 47
0.0208333333333333
 47
0.0
 47
0.0
 47
0.0
 47
0.0
 47
1.0
 47
0.0
 47
0.0
 47
0.0
 47
0.0
 47
1.0
171
     0
 49
0.0208333333333333
 49
0.0
 49
0.0
 49
0.0
 49
0.0
 49
0.0208333333333333
 49
0.0
 49
0.0
 49
0.0
 49
0.0
 49
1.0
 49
0.0
 49
0.0
 49
0.0
 49
0.0
 49
1.0
175
     0
142
0.0208333333333333
142
0.0
142
0.0
142
0.0
142
0.0
142
0.0208333333333333
142
0.0
142
0.0
142
0.0
142
0.0
142
1.0
142
0.0
142
0.0
142
0.0
142
0.0
142
1.0
179
     0
144
0.0208333333333333
144
0.0
144
0.0
144
0.0
144
0.0
144
0.0208333333333333
144
0.0
144
0.0
144
0.0
144
0.0
144
1.0
144
0.0
144
0.0
144
0.0
144
0.0
144
1.0
147
0.0208333333333333
147
0.0
147
0.0
147
0.0
147
0.0
147
0.0208333333333333
147
0.0
147
0.0
147
0.0
147
0.0
147
1.0
147
0.0
147
0.0
147
0.0
147
0.0
147
1.0
  0
MATERIAL
  5
839
102
{ACAD_XDICTIONARY
360
83A
102
}
102
{ACAD_REACTORS
330
72
102
}
330
72
100
AcDbMaterial
  1
Global
 72
     0
 43
0.0208333333333333
 43
0.0
 43
0.0
 43
0.0
 43
0.0
 43
0.0208333333333333
 43
0.0
 43
0.0
 43
0.0
 43
0.0
 43
1.0
 43
0.0
 43
0.0
 43
0.0
 43
0.0
 43
1.0
 77
     0
 47
0.0208333333333333
 47
0.0
 47
0.0
 47
0.0
 47
0.0
 47
0.0208333333333333
 47
0.0
 47
0.0
 47
0.0
 47
0.0
 47
1.0
 47
0.0
 47
0.0
 47
0.0
 47
0.0
 47
1.0
171
     0
 49
0.0208333333333333
 49
0.0
 49
0.0
 49
0.0
 49
0.0
 49
0.0208333333333333
 49
0.0
 49
0.0
 49
0.0
 49
0.0
 49
1.0
 49
0.0
 49
0.0
 49
0.0
 49
0.0
 49
1.0
175
     0
142
0.0208333333333333
142
0.0
142
0.0
142
0.0
142
0.0
142
0.0208333333333333
142
0.0
142
0.0
142
0.0
142
0.0
142
1.0
142
0.0
142
0.0
142
0.0
142
0.0
142
1.0
179
     0
144
0.0208333333333333
144
0.0
144
0.0
144
0.0
144
0.0
144
0.0208333333333333
144
0.0
144
0.0
144
0.0
144
0.0
144
1.0
144
0.0
144
0.0
144
0.0
144
0.0
144
1.0
147
0.0208333333333333
147
0.0
147
0.0
147
0.0
147
0.0
147
0.0208333333333333
147
0.0
147
0.0
147
0.0
147
0.0
147
1.0
147
0.0
147
0.0
147
0.0
147
0.0
147
1.0
  0
MLEADERSTYLE
  5
878
102
{ACAD_REACTORS
330
877
102
}
330
877
100
AcDbMLeaderStyle
170
     2
171
     1
172
     0
 90
        2
 40
0.0
 41
0.0
173
     1
 91
-1056964608
340
14
 92
       -2
290
     1
 42
0.09
291
     1
 43
0.36
  3
Standard
 44
0.18
300

342
11
174
     1
178
     6
175
     1
176
     0
 93
-1056964608
 45
0.18
292
     0
297
     0
 46
0.18
 94
-1056964608
 47
1.0
 49
1.0
140
1.0
293
     1
141
0.0
294
     1
177
     0
142
1.0
295
     0
296
     0
143
0.125
1001
ACAD_MLEADERVER
1070
     2
  0
MLINESTYLE
  5
18
102
{ACAD_REACTORS
330
17
102
}
330
17
100
AcDbMlineStyle
  2
STANDARD
 70
     0
  3

 62
   256
 51
90.0
 52
90.0
 71
     2
 49
0.5
 62
   256
  6
BYLAYER
 49
-0.5
 62
   256
  6
BYLAYER
  0
ACDBPLACEHOLDER
  5
F
102
{ACAD_REACTORS
330
E
102
}
330
E
  0
SCALE
  5
856
102
{ACAD_REACTORS
330
855
102
}
330
855
100
AcDbScale
 70
     0
300
1:1
140
1.0
141
1.0
290
     1
  0
SCALE
  5
857
102
{ACAD_REACTORS
330
855
102
}
330
855
100
AcDbScale
 70
     0
300
1:2
140
1.0
141
2.0
290
     0
  0
SCALE
  5
858
102
{ACAD_REACTORS
330
855
102
}
330
855
100
AcDbScale
 70
     0
300
1:4
140
1.0
141
4.0
290
     0
  0
SCALE
  5
859
102
{ACAD_REACTORS
330
855
102
}
330
855
100
AcDbScale
 70
     0
300
1:5
140
1.0
141
5.0
290
     0
  0
SCALE
  5
85A
102
{ACAD_REACTORS
330
855
102
}
330
855
100
AcDbScale
 70
     0
300
1:8
140
1.0
141
8.0
290
     0
  0
SCALE
  5
85B
102
{ACAD_REACTORS
330
855
102
}
330
855
100
AcDbScale
 70
     0
300
1:10
140
1.0
141
10.0
290
     0
  0
SCALE
  5
85C
102
{ACAD_REACTORS
330
855
102
}
330
855
100
AcDbScale
 70
     0
300
1:16
140
1.0
141
16.0
290
     0
  0
SCALE
  5
85D
102
{ACAD_REACTORS
330
855
102
}
330
855
100
AcDbScale
 70
     0
300
1:20
140
1.0
141
20.0
290
     0
  0
SCALE
  5
85E
102
{ACAD_REACTORS
330
855
102
}
330
855
100
AcDbScale
 70
     0
300
1:30
140
1.0
141
30.0
290
     0
  0
SCALE
  5
85F
102
{ACAD_REACTORS
330
855
102
}
330
855
100
AcDbScale
 70
     0
300
1:40
140
1.0
141
40.0
290
     0
  0
SCALE
  5
860
102
{ACAD_REACTORS
330
855
102
}
330
855
100
AcDbScale
 70
     0
300
1:50
140
1.0
141
50.0
290
     0
  0
SCALE
  5
861
102
{ACAD_REACTORS
330
855
102
}
330
855
100
AcDbScale
 70
     0
300
1:100
140
1.0
141
100.0
290
     0
  0
SCALE
  5
862
102
{ACAD_REACTORS
330
855
102
}
330
855
100
AcDbScale
 70
     0
300
2:1
140
2.0
141
1.0
290
     0
  0
SCALE
  5
863
102
{ACAD_REACTORS
330
855
102
}
330
855
100
AcDbScale
 70
     0
300
4:1
140
4.0
141
1.0
290
     0
  0
SCALE
  5
864
102
{ACAD_REACTORS
330
855
102
}
330
855
100
AcDbScale
 70
     0
300
8:1
140
8.0
141
1.0
290
     0
  0
SCALE
  5
865
102
{ACAD_REACTORS
330
855
102
}
330
855
100
AcDbScale
 70
     0
300
10:1
140
10.0
141
1.0
290
     0
  0
SCALE
  5
866
102
{ACAD_REACTORS
330
855
102
}
330
855
100
AcDbScale
 70
     0
300
100:1
140
100.0
141
1.0
290
     0
  0
SCALE
  5
867
102
{ACAD_REACTORS
330
855
102
}
330
855
100
AcDbScale
 70
     0
300
1/128" = 1'-0"
140
0.0078125
141
12.0
290
     0
  0
SCALE
  5
868
102
{ACAD_REACTORS
330
855
102
}
330
855
100
AcDbScale
 70
     0
300
1/64" = 1'-0"
140
0.015625
141
12.0
290
     0
  0
SCALE
  5
869
102
{ACAD_REACTORS
330
855
102
}
330
855
100
AcDbScale
 70
     0
300
1/32" = 1'-0"
140
0.03125
141
12.0
290
     0
  0
SCALE
  5
86A
102
{ACAD_REACTORS
330
855
102
}
330
855
100
AcDbScale
 70
     0
300
1/16" = 1'-0"
140
0.0625
141
12.0
290
     0
  0
SCALE
  5
86B
102
{ACAD_REACTORS
330
855
102
}
330
855
100
AcDbScale
 70
     0
300
3/32" = 1'-0"
140
0.09375
141
12.0
290
     0
  0
SCALE
  5
86C
102
{ACAD_REACTORS
330
855
102
}
330
855
100
AcDbScale
 70
     0
300
1/8" = 1'-0"
140
0.125
141
12.0
290
     0
  0
SCALE
  5
86D
102
{ACAD_REACTORS
330
855
102
}
330
855
100
AcDbScale
 70
     0
300
3/16" = 1'-0"
140
0.1875
141
12.0
290
     0
  0
SCALE
  5
86E
102
{ACAD_REACTORS
330
855
102
}
330
855
100
AcDbScale
 70
     0
300
1/4" = 1'-0"
140
0.25
141
12.0
290
     0
  0
SCALE
  5
86F
102
{ACAD_REACTORS
330
855
102
}
330
855
100
AcDbScale
 70
     0
300
3/8" = 1'-0"
140
0.375
141
12.0
290
     0
  0
SCALE
  5
870
102
{ACAD_REACTORS
330
855
102
}
330
855
100
AcDbScale
 70
     0
300
1/2" = 1'-0"
140
0.5
141
12.0
290
     0
  0
SCALE
  5
871
102
{ACAD_REACTORS
330
855
102
}
330
855
100
AcDbScale
 70
     0
300
3/4" = 1'-0"
140
0.75
141
12.0
290
     0
  0
SCALE
  5
872
102
{ACAD_REACTORS
330
855
102
}
330
855
100
AcDbScale
 70
     0
300
1" = 1'-0"
140
1.0
141
12.0
290
     0
  0
SCALE
  5
873
102
{ACAD_REACTORS
330
855
102
}
330
855
100
AcDbScale
 70
     0
300
1-1/2" = 1'-0"
140
1.5
141
12.0
290
     0
  0
SCALE
  5
874
102
{ACAD_REACTORS
330
855
102
}
330
855
100
AcDbScale
 70
     0
300
3" = 1'-0"
140
3.0
141
12.0
290
     0
  0
SCALE
  5
875
102
{ACAD_REACTORS
330
855
102
}
330
855
100
AcDbScale
 70
     0
300
6" = 1'-0"
140
6.0
141
12.0
290
     0
  0
SCALE
  5
876
102
{ACAD_REACTORS
330
855
102
}
330
855
100
AcDbScale
 70
     0
300
1'-0" = 1'-0"
140
12.0
141
12.0
290
     0
  0
TABLESTYLE
  5
87
102
{ACAD_XDICTIONARY
360
88C
102
}
102
{ACAD_REACTORS
330
86
102
}
330
86
100
AcDbTableStyle
  3
Standard
 70
     0
 71
     0
 40
0.06
 41
0.06
280
     0
281
     0
  7
Standard
140
0.18
170
     2
 62
     0
 63
     7
283
     0
274
    -2
284
     1
 64
     0
275
    -2
285
     1
 65
     0
276
    -2
286
     1
 66
     0
277
    -2
287
     1
 67
     0
278
    -2
288
     1
 68
     0
279
    -2
289
     1
 69
     0
  7
Standard
140
0.25
170
     5
 62
     0
 63
     7
283
     0
274
    -2
284
     1
 64
     0
275
    -2
285
     1
 65
     0
276
    -2
286
     1
 66
     0
277
    -2
287
     1
 67
     0
278
    -2
288
     1
 68
     0
279
    -2
289
     1
 69
     0
  7
Standard
140
0.18
170
     5
 62
     0
 63
     7
283
     0
274
    -2
284
     1
 64
     0
275
    -2
285
     1
 65
     0
276
    -2
286
     1
 66
     0
277
    -2
287
     1
 67
     0
278
    -2
288
     1
 68
     0
279
    -2
289
     1
 69
     0
  0
VISUALSTYLE
  5
847
102
{ACAD_XDICTIONARY
360
8A4
102
}
102
{ACAD_REACTORS
330
841
102
}
330
841
100
AcDbVisualStyle
  2
2dWireframe
 70
     4
 71
     0
 72
     2
 73
     0
 90
        0
 40
-0.6
 41
-30.0
 62
     5
 63
     7
 74
     1
 91
        4
 64
     7
 65
   257
 75
     1
175
     1
 42
1.0
 92
        0
 66
   257
 43
1.0
 76
     1
 77
     6
 78
     2
 67
     7
 79
     5
170
     0
171
     0
290
     0
174
     0
 93
        1
 44
0.0
173
     0
291
     0
 45
0.0
1001
ACAD
1000
AcDbSavedByObjectVersion
1070
     0
  0
VISUALSTYLE
  5
849
102
{ACAD_XDICTIONARY
360
8A8
102
}
102
{ACAD_REACTORS
330
841
102
}
330
841
100
AcDbVisualStyle
  2
3D Hidden
 70
     6
 71
     1
 72
     2
 73
     2
 90
        0
 40
-0.6
 41
-30.0
 62
     5
 63
     7
 74
     2
 91
        2
 64
     7
 65
   257
 75
     2
175
     1
 42
179.0
 92
        0
 66
   257
 43
1.0
 76
     1
 77
     6
 78
     2
 67
     7
 79
     3
170
     0
171
     0
290
     0
174
     0
 93
        1
 44
0.0
173
     0
291
     0
 45
0.0
1001
ACAD
1000
AcDbSavedByObjectVersion
1070
     0
  0
VISUALSTYLE
  5
848
102
{ACAD_XDICTIONARY
360
8A6
102
}
102
{ACAD_REACTORS
330
841
102
}
330
841
100
AcDbVisualStyle
  2
3dWireframe
 70
     5
 71
     0
 72
     2
 73
     0
 90
        0
 40
-0.6
 41
-30.0
 62
     5
 63
     7
 74
     1
 91
        4
 64
     7
 65
   257
 75
     1
175
     1
 42
1.0
 92
        0
 66
   257
 43
1.0
 76
     1
 77
     6
 78
     2
 67
     7
 79
     5
170
     0
171
     0
290
     0
174
     0
 93
        1
 44
0.0
173
     0
291
     0
 45
0.0
1001
ACAD
1000
AcDbSavedByObjectVersion
1070
     0
  0
VISUALSTYLE
  5
846
102
{ACAD_XDICTIONARY
360
8A2
102
}
102
{ACAD_REACTORS
330
841
102
}
330
841
100
AcDbVisualStyle
  2
Basic
 70
     7
 71
     1
 72
     0
 73
     1
 90
        0
 40
-0.6
 41
-30.0
 62
     5
 63
     7
 74
     0
 91
        4
 64
     7
 65
   257
 75
     1
175
     1
 42
1.0
 92
        8
 66
     7
 43
1.0
 76
     1
 77
     6
 78
     2
 67
     7
 79
     5
170
     0
171
     0
290
     0
174
     0
 93
        1
 44
0.0
173
     0
291
     1
 45
0.0
1001
ACAD
1000
AcDbSavedByObjectVersion
1070
     0
  0
VISUALSTYLE
  5
84D
102
{ACAD_XDICTIONARY
360
8B0
102
}
102
{ACAD_REACTORS
330
841
102
}
330
841
100
AcDbVisualStyle
  2
Brighten
 70
    12
 71
     2
 72
     2
 73
     0
 90
        0
 40
-0.6
 41
-30.0
 62
     5
 63
     7
 74
     1
 91
        4
 64
     7
 65
   257
 75
     1
175
     1
 42
1.0
 92
        8
 66
     7
 43
1.0
 76
     1
 77
     6
 78
     2
 67
     7
 79
     5
170
     0
171
     0
290
     0
174
     0
 93
        1
 44
50.0
173
     0
291
     1
 45
0.0
1001
ACAD
1000
AcDbSavedByObjectVersion
1070
     0
  0
VISUALSTYLE
  5
851
102
{ACAD_XDICTIONARY
360
8B8
102
}
102
{ACAD_REACTORS
330
841
102
}
330
841
100
AcDbVisualStyle
  2
ColorChange
 70
    16
 71
     2
 72
     2
 73
     3
 90
        0
 40
-0.6
 41
-30.0
 62
     5
 63
     8
 74
     1
 91
        4
 64
     7
 65
   257
 75
     1
175
     1
 42
1.0
 92
        8
 66
     8
 43
1.0
 76
     1
 77
     6
 78
     2
 67
     7
 79
     5
170
     0
171
     0
290
     0
174
     0
 93
        1
 44
0.0
173
     0
291
     1
 45
0.0
1001
ACAD
1000
AcDbSavedByObjectVersion
1070
     0
  0
VISUALSTYLE
  5
84A
102
{ACAD_XDICTIONARY
360
8AA
102
}
102
{ACAD_REACTORS
330
841
102
}
330
841
100
AcDbVisualStyle
  2
Conceptual
 70
     9
 71
     3
 72
     2
 73
     0
 90
        0
 40
-0.6
 41
-30.0
 62
     5
 63
     7
 74
     2
 91
        2
 64
     7
 65
   257
 75
     1
175
     1
 42
179.0
 92
        8
 66
     7
 43
1.0
 76
     1
 77
     6
 78
     2
 67
     7
 79
     3
170
     0
171
     0
290
     0
174
     0
 93
        1
 44
0.0
173
     0
291
     0
 45
0.0
1001
ACAD
1000
AcDbSavedByObjectVersion
1070
     0
  0
VISUALSTYLE
  5
84C
102
{ACAD_XDICTIONARY
360
8AE
102
}
102
{ACAD_REACTORS
330
841
102
}
330
841
100
AcDbVisualStyle
  2
Dim
 70
    11
 71
     2
 72
     2
 73
     0
 90
        0
 40
-0.6
 41
-30.0
 62
     5
 63
     7
 74
     1
 91
        4
 64
     7
 65
   257
 75
     1
175
     1
 42
1.0
 92
        8
 66
     7
 43
1.0
 76
     1
 77
     6
 78
     2
 67
     7
 79
     5
170
     0
171
     0
290
     0
174
     0
 93
        1
 44
-50.0
173
     0
291
     1
 45
0.0
1001
ACAD
1000
AcDbSavedByObjectVersion
1070
     0
  0
VISUALSTYLE
  5
854
102
{ACAD_XDICTIONARY
360
8BE
102
}
102
{ACAD_REACTORS
330
841
102
}
330
841
100
AcDbVisualStyle
  2
EdgeColorOff
 70
    22
 71
     2
 72
     2
 73
     0
 90
        0
 40
-0.6
 41
-30.0
 62
     5
 63
     7
 74
     1
 91
        4
 64
     7
 65
   257
 75
     1
175
     1
 42
1.0
 92
        8
 66
     7
 43
1.0
 76
     1
 77
     6
 78
     2
 67
     7
 79
     5
170
     0
171
     0
290
     0
174
     0
 93
        1
 44
0.0
173
     0
291
     1
 45
0.0
1001
ACAD
1000
AcDbSavedByObjectVersion
1070
     0
  0
VISUALSTYLE
  5
850
102
{ACAD_XDICTIONARY
360
8B6
102
}
102
{ACAD_REACTORS
330
841
102
}
330
841
100
AcDbVisualStyle
  2
Facepattern
 70
    15
 71
     2
 72
     2
 73
     0
 90
        0
 40
-0.6
 41
-30.0
 62
     5
 63
     7
 74
     1
 91
        4
 64
     7
 65
   257
 75
     1
175
     1
 42
1.0
 92
        8
 66
     7
 43
1.0
 76
     1
 77
     6
 78
     2
 67
     7
 79
     5
170
     0
171
     0
290
     0
174
     0
 93
        1
 44
0.0
173
     0
291
     1
 45
0.0
1001
ACAD
1000
AcDbSavedByObjectVersion
1070
     0
  0
VISUALSTYLE
  5
842
102
{ACAD_XDICTIONARY
360
89A
102
}
102
{ACAD_REACTORS
330
841
102
}
330
841
100
AcDbVisualStyle
  2
Flat
 70
     0
 71
     2
 72
     1
 73
     1
 90
        2
 40
-0.6
 41
30.0
 62
     5
 63
     7
 74
     0
 91
        4
 64
     7
 65
   257
 75
     1
175
     1
 42
1.0
 92
        8
 66
     7
 43
1.0
 76
     1
 77
     6
 78
     2
 67
     7
 79
     5
170
     0
171
     0
290
     0
174
     0
 93
       13
 44
0.0
173
     0
291
     1
 45
0.0
1001
ACAD
1000
AcDbSavedByObjectVersion
1070
     0
  0
VISUALSTYLE
  5
843
102
{ACAD_XDICTIONARY
360
89C
102
}
102
{ACAD_REACTORS
330
841
102
}
330
841
100
AcDbVisualStyle
  2
FlatWithEdges
 70
     1
 71
     2
 72
     1
 73
     1
 90
        2
 40
-0.6
 41
30.0
 62
     5
 63
     7
 74
     1
 91
        4
 64
     7
 65
   257
 75
     1
175
     1
 42
1.0
 92
        0
 66
   257
 43
1.0
 76
     1
 77
     6
 78
     2
 67
     7
 79
     5
170
     0
171
     0
290
     0
174
     0
 93
       13
 44
0.0
173
     0
291
     1
 45
0.0
1001
ACAD
1000
AcDbSavedByObjectVersion
1070
     0
  0
VISUALSTYLE
  5
844
102
{ACAD_XDICTIONARY
360
89E
102
}
102
{ACAD_REACTORS
330
841
102
}
330
841
100
AcDbVisualStyle
  2
Gouraud
 70
     2
 71
     2
 72
     2
 73
     1
 90
        2
 40
-0.6
 41
30.0
 62
     5
 63
     7
 74
     0
 91
        4
 64
     7
 65
   257
 75
     1
175
     1
 42
1.0
 92
        0
 66
     7
 43
1.0
 76
     1
 77
     6
 78
     2
 67
     7
 79
     5
170
     0
171
     0
290
     0
174
     0
 93
       13
 44
0.0
173
     0
291
     1
 45
0.0
1001
ACAD
1000
AcDbSavedByObjectVersion
1070
     0
  0
VISUALSTYLE
  5
845
102
{ACAD_XDICTIONARY
360
8A0
102
}
102
{ACAD_REACTORS
330
841
102
}
330
841
100
AcDbVisualStyle
  2
GouraudWithEdges
 70
     3
 71
     2
 72
     2
 73
     1
 90
        2
 40
-0.6
 41
30.0
 62
     5
 63
     7
 74
     1
 91
        4
 64
     7
 65
   257
 75
     1
175
     1
 42
1.0
 92
        0
 66
   257
 43
1.0
 76
     1
 77
     6
 78
     2
 67
     7
 79
     5
170
     0
171
     0
290
     0
174
     0
 93
       13
 44
0.0
173
     0
291
     1
 45
0.0
1001
ACAD
1000
AcDbSavedByObjectVersion
1070
     0
  0
VISUALSTYLE
  5
852
102
{ACAD_XDICTIONARY
360
8BA
102
}
102
{ACAD_REACTORS
330
841
102
}
330
841
100
AcDbVisualStyle
  2
JitterOff
 70
    20
 71
     2
 72
     2
 73
     0
 90
        0
 40
-0.6
 41
-30.0
 62
     5
 63
     7
 74
     1
 91
        4
 64
     7
 65
   257
 75
     1
175
     1
 42
1.0
 92
       10
 66
     7
 43
1.0
 76
     1
 77
     6
 78
     2
 67
     7
 79
     5
170
     0
171
     0
290
     0
174
     0
 93
        1
 44
0.0
173
     0
291
     1
 45
0.0
1001
ACAD
1000
AcDbSavedByObjectVersion
1070
     0
  0
VISUALSTYLE
  5
84F
102
{ACAD_XDICTIONARY
360
8B4
102
}
102
{ACAD_REACTORS
330
841
102
}
330
841
100
AcDbVisualStyle
  2
Linepattern
 70
    14
 71
     2
 72
     2
 73
     0
 90
        0
 40
-0.6
 41
-30.0
 62
     5
 63
     7
 74
     1
 91
        4
 64
     7
 65
   257
 75
     7
175
     7
 42
1.0
 92
        8
 66
     7
 43
1.0
 76
     1
 77
     6
 78
     2
 67
     7
 79
     5
170
     0
171
     0
290
     0
174
     0
 93
        1
 44
0.0
173
     0
291
     1
 45
0.0
1001
ACAD
1000
AcDbSavedByObjectVersion
1070
     0
  0
VISUALSTYLE
  5
853
102
{ACAD_XDICTIONARY
360
8BC
102
}
102
{ACAD_REACTORS
330
841
102
}
330
841
100
AcDbVisualStyle
  2
OverhangOff
 70
    21
 71
     2
 72
     2
 73
     0
 90
        0
 40
-0.6
 41
-30.0
 62
     5
 63
     7
 74
     1
 91
        4
 64
     7
 65
   257
 75
     1
175
     1
 42
1.0
 92
        9
 66
     7
 43
1.0
 76
     1
 77
     6
 78
     2
 67
     7
 79
     5
170
     0
171
     0
290
     0
174
     0
 93
        1
 44
0.0
173
     0
291
     1
 45
0.0
1001
ACAD
1000
AcDbSavedByObjectVersion
1070
     0
  0
VISUALSTYLE
  5
84B
102
{ACAD_XDICTIONARY
360
8AC
102
}
102
{ACAD_REACTORS
330
841
102
}
330
841
100
AcDbVisualStyle
  2
Realistic
 70
     8
 71
     2
 72
     2
 73
     0
 90
        0
 40
-0.6
 41
-30.0
 62
     5
 63
     7
 74
     1
 91
        0
 64
     7
 65
   257
 75
     1
175
     1
 42
1.0
 92
        8
 66
     8
 43
1.0
 76
     1
 77
     6
 78
     2
 67
     7
 79
     5
170
     0
171
     0
290
     0
174
     0
 93
       13
 44
0.0
173
     0
291
     0
 45
0.0
1001
ACAD
1000
AcDbSavedByObjectVersion
1070
     0
  0
VISUALSTYLE
  5
84E
102
{ACAD_XDICTIONARY
360
8B2
102
}
102
{ACAD_REACTORS
330
841
102
}
330
841
100
AcDbVisualStyle
  2
Thicken
 70
    13
 71
     2
 72
     2
 73
     0
 90
        0
 40
-0.6
 41
-30.0
 62
     5
 63
     7
 74
     1
 91
        4
 64
     7
 65
   257
 75
     1
175
     1
 42
1.0
 92
       12
 66
     7
 43
1.0
 76
     1
 77
     6
 78
     2
 67
     7
 79
     5
170
     0
171
     0
290
     0
174
     0
 93
        1
 44
0.0
173
     0
291
     1
 45
0.0
1001
ACAD
1000
AcDbSavedByObjectVersion
1070
     0
  0
DICTIONARYVAR
  5
888
102
{ACAD_REACTORS
330
66
102
}
330
66
100
DictionaryVariables
280
     0
  1
1:1
  0
DICTIONARYVAR
  5
887
102
{ACAD_REACTORS
330
66
102
}
330
66
100
DictionaryVariables
280
     0
  1
STANDARD
  0
DICTIONARYVAR
  5
8D
102
{ACAD_REACTORS
330
66
102
}
330
66
100
DictionaryVariables
280
     0
  1
STANDARD
  0
DICTIONARYVAR
  5
67
102
{ACAD_REACTORS
330
66
102
}
330
66
100
DictionaryVariables
280
     0
  1
2
  0
DICTIONARYVAR
  5
6B
102
{ACAD_REACTORS
330
66
102
}
330
66
100
DictionaryVariables
280
     0
  1
1
  0
DICTIONARYVAR
  5
88A
102
{ACAD_REACTORS
330
66
102
}
330
66
100
DictionaryVariables
280
     0
  1
0
  0
DICTIONARYVAR
  5
889
102
{ACAD_REACTORS
330
66
102
}
330
66
100
DictionaryVariables
280
     0
  1
127
  0
DICTIONARYVAR
  5
88B
102
{ACAD_REACTORS
330
66
102
}
330
66
100
DictionaryVariables
280
     0
  1
0
  0
DICTIONARY
  5
892
330
59
100
AcDbDictionary
280
     1
281
     1
  3
ACAD_XREC_ROUNDTRIP
360
893
  0
DICTIONARY
  5
894
330
5E
100
AcDbDictionary
280
     1
281
     1
  3
ACAD_XREC_ROUNDTRIP
360
895
  0
DICTIONARY
  5
890
330
22
100
AcDbDictionary
280
     1
281
     1
  3
ACAD_XREC_ROUNDTRIP
360
891
  0
DICTIONARY
  5
832
330
831
100
AcDbDictionary
280
     1
281
     1
  3
ACAD_XREC_ROUNDTRIP
360
898
  3
BUMPTILE
360
834
  3
DIFFUSETILE
360
833
  3
OPACITYTILE
360
837
  3
REFLECTIONTILE
360
836
  3
REFRACTIONTILE
360
838
  3
SPECULARTILE
360
835
  0
DICTIONARY
  5
82A
330
829
100
AcDbDictionary
280
     1
281
     1
  3
ACAD_XREC_ROUNDTRIP
360
897
  3
BUMPTILE
360
82C
  3
DIFFUSETILE
360
82B
  3
OPACITYTILE
360
82F
  3
REFLECTIONTILE
360
82E
  3
REFRACTIONTILE
360
830
  3
SPECULARTILE
360
82D
  0
DICTIONARY
  5
83A
330
839
100
AcDbDictionary
280
     1
281
     1
  3
ACAD_XREC_ROUNDTRIP
360
899
  3
BUMPTILE
360
83C
  3
DIFFUSETILE
360
83B
  3
OPACITYTILE
360
83F
  3
REFLECTIONTILE
360
83E
  3
REFRACTIONTILE
360
840
  3
SPECULARTILE
360
83D
  0
DICTIONARY
  5
88C
330
87
100
AcDbDictionary
280
     1
281
     1
  3
ACAD_ROUNDTRIP_2008_TABLESTYLE_CELLSTYLEMAP
360
88D
  3
ACAD_XREC_ROUNDTRIP
360
896
  0
DICTIONARY
  5
8A4
330
847
100
AcDbDictionary
280
     1
281
     1
  3
ACAD_XREC_ROUNDTRIP
360
8A5
  0
DICTIONARY
  5
8A8
330
849
100
AcDbDictionary
280
     1
281
     1
  3
ACAD_XREC_ROUNDTRIP
360
8A9
  0
DICTIONARY
  5
8A6
330
848
100
AcDbDictionary
280
     1
281
     1
  3
ACAD_XREC_ROUNDTRIP
360
8A7
  0
DICTIONARY
  5
8A2
330
846
100
AcDbDictionary
280
     1
281
     1
  3
ACAD_XREC_ROUNDTRIP
360
8A3
  0
DICTIONARY
  5
8B0
330
84D
100
AcDbDictionary
280
     1
281
     1
  3
ACAD_XREC_ROUNDTRIP
360
8B1
  0
DICTIONARY
  5
8B8
330
851
100
AcDbDictionary
280
     1
281
     1
  3
ACAD_XREC_ROUNDTRIP
360
8B9
  0
DICTIONARY
  5
8AA
330
84A
100
AcDbDictionary
280
     1
281
     1
  3
ACAD_XREC_ROUNDTRIP
360
8AB
  0
DICTIONARY
  5
8AE
330
84C
100
AcDbDictionary
280
     1
281
     1
  3
ACAD_XREC_ROUNDTRIP
360
8AF
  0
DICTIONARY
  5
8BE
330
854
100
AcDbDictionary
280
     1
281
     1
  3
ACAD_XREC_ROUNDTRIP
360
8BF
  0
DICTIONARY
  5
8B6
330
850
100
AcDbDictionary
280
     1
281
     1
  3
ACAD_XREC_ROUNDTRIP
360
8B7
  0
DICTIONARY
  5
89A
330
842
100
AcDbDictionary
280
     1
281
     1
  3
ACAD_XREC_ROUNDTRIP
360
89B
  0
DICTIONARY
  5
89C
330
843
100
AcDbDictionary
280
     1
281
     1
  3
ACAD_XREC_ROUNDTRIP
360
89D
  0
DICTIONARY
  5
89E
330
844
100
AcDbDictionary
280
     1
281
     1
  3
ACAD_XREC_ROUNDTRIP
360
89F
  0
DICTIONARY
  5
8A0
330
845
100
AcDbDictionary
280
     1
281
     1
  3
ACAD_XREC_ROUNDTRIP
360
8A1
  0
DICTIONARY
  5
8BA
330
852
100
AcDbDictionary
280
     1
281
     1
  3
ACAD_XREC_ROUNDTRIP
360
8BB
  0
DICTIONARY
  5
8B4
330
84F
100
AcDbDictionary
280
     1
281
     1
  3
ACAD_XREC_ROUNDTRIP
360
8B5
  0
DICTIONARY
  5
8BC
330
853
100
AcDbDictionary
280
     1
281
     1
  3
ACAD_XREC_ROUNDTRIP
360
8BD
  0
DICTIONARY
  5
8AC
330
84B
100
AcDbDictionary
280
     1
281
     1
  3
ACAD_XREC_ROUNDTRIP
360
8AD
  0
DICTIONARY
  5
8B2
330
84E
100
AcDbDictionary
280
     1
281
     1
  3
ACAD_XREC_ROUNDTRIP
360
8B3
  0
XRECORD
  5
893
102
{ACAD_REACTORS
330
892
102
}
330
892
100
AcDbXrecord
280
     1
102
SHADEPLOT
 70
     0
102
SHADEPLOTRESLEVEL
 70
     2
102
SHADEPLOTCUSTOMDPI
 70
   300
  0
XRECORD
  5
895
102
{ACAD_REACTORS
330
894
102
}
330
894
100
AcDbXrecord
280
     1
102
SHADEPLOT
 70
     0
102
SHADEPLOTRESLEVEL
 70
     2
102
SHADEPLOTCUSTOMDPI
 70
   300
  0
XRECORD
  5
891
102
{ACAD_REACTORS
330
890
102
}
330
890
100
AcDbXrecord
280
     1
102
SHADEPLOT
 70
     0
102
SHADEPLOTRESLEVEL
 70
     2
102
SHADEPLOTCUSTOMDPI
 70
   300
  0
XRECORD
  5
898
102
{ACAD_REACTORS
330
832
102
}
330
832
100
AcDbXrecord
280
     1
102
MATERIAL
148
0.0
149
0.0
149
0.0
 93
        0
 94
      127
282
     0
 72
     0
 77
     0
171
     0
175
     0
179
     0
273
     0
  0
XRECORD
  5
834
102
{ACAD_REACTORS
330
832
102
}
330
832
100
AcDbXrecord
280
     1
270
     1
271
     1
  0
XRECORD
  5
833
102
{ACAD_REACTORS
330
832
102
}
330
832
100
AcDbXrecord
280
     1
270
     1
271
     1
  0
XRECORD
  5
837
102
{ACAD_REACTORS
330
832
102
}
330
832
100
AcDbXrecord
280
     1
270
     1
271
     1
  0
XRECORD
  5
836
102
{ACAD_REACTORS
330
832
102
}
330
832
100
AcDbXrecord
280
     1
270
     1
271
     1
  0
XRECORD
  5
838
102
{ACAD_REACTORS
330
832
102
}
330
832
100
AcDbXrecord
280
     1
270
     1
271
     1
  0
XRECORD
  5
835
102
{ACAD_REACTORS
330
832
102
}
330
832
100
AcDbXrecord
280
     1
270
     1
271
     1
  0
XRECORD
  5
897
102
{ACAD_REACTORS
330
82A
102
}
330
82A
100
AcDbXrecord
280
     1
102
MATERIAL
148
0.0
149
0.0
149
0.0
 93
        0
 94
      127
282
     0
 72
     0
 77
     0
171
     0
175
     0
179
     0
273
     0
  0
XRECORD
  5
82C
102
{ACAD_REACTORS
330
82A
102
}
330
82A
100
AcDbXrecord
280
     1
270
     1
271
     1
  0
XRECORD
  5
82B
102
{ACAD_REACTORS
330
82A
102
}
330
82A
100
AcDbXrecord
280
     1
270
     1
271
     1
  0
XRECORD
  5
82F
102
{ACAD_REACTORS
330
82A
102
}
330
82A
100
AcDbXrecord
280
     1
270
     1
271
     1
  0
XRECORD
  5
82E
102
{ACAD_REACTORS
330
82A
102
}
330
82A
100
AcDbXrecord
280
     1
270
     1
271
     1
  0
XRECORD
  5
830
102
{ACAD_REACTORS
330
82A
102
}
330
82A
100
AcDbXrecord
280
     1
270
     1
271
     1
  0
XRECORD
  5
82D
102
{ACAD_REACTORS
330
82A
102
}
330
82A
100
AcDbXrecord
280
     1
270
     1
271
     1
  0
XRECORD
  5
899
102
{ACAD_REACTORS
330
83A
102
}
330
83A
100
AcDbXrecord
280
     1
102
MATERIAL
148
0.0
149
0.0
149
0.0
 93
        0
 94
      127
282
     0
 72
     0
 77
     0
171
     0
175
     0
179
     0
273
     0
  0
XRECORD
  5
83C
102
{ACAD_REACTORS
330
83A
102
}
330
83A
100
AcDbXrecord
280
     1
270
     1
271
     1
  0
XRECORD
  5
83B
102
{ACAD_REACTORS
330
83A
102
}
330
83A
100
AcDbXrecord
280
     1
270
     1
271
     1
  0
XRECORD
  5
83F
102
{ACAD_REACTORS
330
83A
102
}
330
83A
100
AcDbXrecord
280
     1
270
     1
271
     1
  0
XRECORD
  5
83E
102
{ACAD_REACTORS
330
83A
102
}
330
83A
100
AcDbXrecord
280
     1
270
     1
271
     1
  0
XRECORD
  5
840
102
{ACAD_REACTORS
330
83A
102
}
330
83A
100
AcDbXrecord
280
     1
270
     1
271
     1
  0
XRECORD
  5
83D
102
{ACAD_REACTORS
330
83A
102
}
330
83A
100
AcDbXrecord
280
     1
270
     1
271
     1
  0
CELLSTYLEMAP
  5
88D
102
{ACAD_REACTORS
330
88C
102
}
330
88C
100
AcDbCellStyleMap
 90
        3
300
CELLSTYLE
  1
TABLEFORMAT_BEGIN
 90
        5
170
     1
 91
        0
 92
    32768
 62
   257
 93
        1
300
CONTENTFORMAT
  1
CONTENTFORMAT_BEGIN
 90
        0
 91
        0
 92
        4
 93
        0
300

 40
0.0
140
1.0
 94
        5
 62
     0
340
11
144
0.25
309
CONTENTFORMAT_END
171
     0
 94
        6
 95
        1
302
GRIDFORMAT
  1
GRIDFORMAT_BEGIN
 90
        0
 91
        1
 62
     0
 92
       -2
340
0
 93
        0
 40
0.045
309
GRIDFORMAT_END
 95
        2
302
GRIDFORMAT
  1
GRIDFORMAT_BEGIN
 90
        0
 91
        1
 62
     0
 92
       -2
340
0
 93
        0
 40
0.045
309
GRIDFORMAT_END
 95
        4
302
GRIDFORMAT
  1
GRIDFORMAT_BEGIN
 90
        0
 91
        1
 62
     0
 92
       -2
340
0
 93
        0
 40
0.045
309
GRIDFORMAT_END
 95
        8
302
GRIDFORMAT
  1
GRIDFORMAT_BEGIN
 90
        0
 91
        1
 62
     0
 92
       -2
340
0
 93
        0
 40
0.045
309
GRIDFORMAT_END
 95
       16
302
GRIDFORMAT
  1
GRIDFORMAT_BEGIN
 90
        0
 91
        1
 62
     0
 92
       -2
340
0
 93
        0
 40
0.045
309
GRIDFORMAT_END
 95
       32
302
GRIDFORMAT
  1
GRIDFORMAT_BEGIN
 90
        0
 91
        1
 62
     0
 92
       -2
340
0
 93
        0
 40
0.045
309
GRIDFORMAT_END
309
TABLEFORMAT_END
  1
CELLSTYLE_BEGIN
 90
        1
 91
        1
300
_TITLE
309
CELLSTYLE_END
300
CELLSTYLE
  1
TABLEFORMAT_BEGIN
 90
        5
170
     1
 91
        0
 92
        0
 62
   257
 93
        1
300
CONTENTFORMAT
  1
CONTENTFORMAT_BEGIN
 90
        0
 91
        0
 92
        4
 93
        0
300

 40
0.0
140
1.0
 94
        5
 62
     0
340
11
144
0.18
309
CONTENTFORMAT_END
171
     0
 94
        6
 95
        1
302
GRIDFORMAT
  1
GRIDFORMAT_BEGIN
 90
        0
 91
        1
 62
     0
 92
       -2
340
0
 93
        0
 40
0.045
309
GRIDFORMAT_END
 95
        2
302
GRIDFORMAT
  1
GRIDFORMAT_BEGIN
 90
        0
 91
        1
 62
     0
 92
       -2
340
0
 93
        0
 40
0.045
309
GRIDFORMAT_END
 95
        4
302
GRIDFORMAT
  1
GRIDFORMAT_BEGIN
 90
        0
 91
        1
 62
     0
 92
       -2
340
0
 93
        0
 40
0.045
309
GRIDFORMAT_END
 95
        8
302
GRIDFORMAT
  1
GRIDFORMAT_BEGIN
 90
        0
 91
        1
 62
     0
 92
       -2
340
0
 93
        0
 40
0.045
309
GRIDFORMAT_END
 95
       16
302
GRIDFORMAT
  1
GRIDFORMAT_BEGIN
 90
        0
 91
        1
 62
     0
 92
       -2
340
0
 93
        0
 40
0.045
309
GRIDFORMAT_END
 95
       32
302
GRIDFORMAT
  1
GRIDFORMAT_BEGIN
 90
        0
 91
        1
 62
     0
 92
       -2
340
0
 93
        0
 40
0.045
309
GRIDFORMAT_END
309
TABLEFORMAT_END
  1
CELLSTYLE_BEGIN
 90
        2
 91
        1
300
_HEADER
309
CELLSTYLE_END
300
CELLSTYLE
  1
TABLEFORMAT_BEGIN
 90
        5
170
     1
 91
        0
 92
        0
 62
   257
 93
        1
300
CONTENTFORMAT
  1
CONTENTFORMAT_BEGIN
 90
        0
 91
        0
 92
        4
 93
        0
300

 40
0.0
140
1.0
 94
        2
 62
     0
340
11
144
0.18
309
CONTENTFORMAT_END
171
     0
 94
        6
 95
        1
302
GRIDFORMAT
  1
GRIDFORMAT_BEGIN
 90
        0
 91
        1
 62
     0
 92
       -2
340
0
 93
        0
 40
0.045
309
GRIDFORMAT_END
 95
        2
302
GRIDFORMAT
  1
GRIDFORMAT_BEGIN
 90
        0
 91
        1
 62
     0
 92
       -2
340
0
 93
        0
 40
0.045
309
GRIDFORMAT_END
 95
        4
302
GRIDFORMAT
  1
GRIDFORMAT_BEGIN
 90
        0
 91
        1
 62
     0
 92
       -2
340
0
 93
        0
 40
0.045
309
GRIDFORMAT_END
 95
        8
302
GRIDFORMAT
  1
GRIDFORMAT_BEGIN
 90
        0
 91
        1
 62
     0
 92
       -2
340
0
 93
        0
 40
0.045
309
GRIDFORMAT_END
 95
       16
302
GRIDFORMAT
  1
GRIDFORMAT_BEGIN
 90
        0
 91
        1
 62
     0
 92
       -2
340
0
 93
        0
 40
0.045
309
GRIDFORMAT_END
 95
       32
302
GRIDFORMAT
  1
GRIDFORMAT_BEGIN
 90
        0
 91
        1
 62
     0
 92
       -2
340
0
 93
        0
 40
0.045
309
GRIDFORMAT_END
309
TABLEFORMAT_END
  1
CELLSTYLE_BEGIN
 90
        3
 91
        2
300
_DATA
309
CELLSTYLE_END
  0
XRECORD
  5
896
102
{ACAD_REACTORS
330
88C
102
}
330
88C
100
AcDbXrecord
280
     1
102
ACAD_ROUNDTRIP_PRE2007_TABLESTYLE
 90
        4
 91
        0
  1

 92
        4
 93
        0
  2

 94
        4
 95
        0
  3

  0
XRECORD
  5
8A5
102
{ACAD_REACTORS
330
8A4
102
}
330
8A4
100
AcDbXrecord
280
     1
102
RTVSPropertyOp0
 70
     1
102
RTVSPropertyOp1
 70
     1
102
RTVSPropertyOp2
 70
     1
102
RTVSPropertyOp3
 70
     1
102
RTVSPropertyOp4
 70
     1
102
RTVSPropertyOp5
 70
     1
102
RTVSPropertyOp6
 70
     1
102
RTVSPropertyOp7
 70
     1
102
RTVSPropertyOp8
 70
     1
102
RTVSPropertyOp9
 70
     1
102
RTVSPropertyOp10
 70
     1
102
RTVSPropertyOp11
 70
     1
102
RTVSPropertyOp12
 70
     1
102
RTVSPropertyOp13
 70
     1
102
RTVSPropertyOp14
 70
     1
102
RTVSPropertyOp15
 70
     1
102
RTVSPropertyOp16
 70
     1
102
RTVSPropertyOp17
 70
     1
102
RTVSPropertyOp18
 70
     1
102
RTVSPropertyOp19
 70
     1
102
RTVSPropertyOp20
 70
     1
102
RTVSPropertyOp21
 70
     1
102
RTVSPropertyOp22
 70
     1
102
RTVSPropertyOp23
 70
     1
102
RTVSPropertyOp24
 70
     1
102
RTVSPropertyOp25
 70
     1
102
RTVSPropertyOp26
 70
     1
102
RTVSPropertyOp27
 70
     1
  0
XRECORD
  5
8A9
102
{ACAD_REACTORS
330
8A8
102
}
330
8A8
100
AcDbXrecord
280
     1
102
RTVSPropertyOp0
 70
     1
102
RTVSPropertyOp1
 70
     1
102
RTVSPropertyOp2
 70
     1
102
RTVSPropertyOp3
 70
     1
102
RTVSPropertyOp4
 70
     1
102
RTVSPropertyOp5
 70
     1
102
RTVSPropertyOp6
 70
     1
102
RTVSPropertyOp7
 70
     1
102
RTVSPropertyOp8
 70
     1
102
RTVSPropertyOp9
 70
     1
102
RTVSPropertyOp10
 70
     1
102
RTVSPropertyOp11
 70
     1
102
RTVSPropertyOp12
 70
     1
102
RTVSPropertyOp13
 70
     1
102
RTVSPropertyOp14
 70
     1
102
RTVSPropertyOp15
 70
     1
102
RTVSPropertyOp16
 70
     1
102
RTVSPropertyOp17
 70
     1
102
RTVSPropertyOp18
 70
     1
102
RTVSPropertyOp19
 70
     1
102
RTVSPropertyOp20
 70
     1
102
RTVSPropertyOp21
 70
     1
102
RTVSPropertyOp22
 70
     1
102
RTVSPropertyOp23
 70
     1
102
RTVSPropertyOp24
 70
     1
102
RTVSPropertyOp25
 70
     1
102
RTVSPropertyOp26
 70
     1
102
RTVSPropertyOp27
 70
     1
  0
XRECORD
  5
8A7
102
{ACAD_REACTORS
330
8A6
102
}
330
8A6
100
AcDbXrecord
280
     1
102
RTVSPropertyOp0
 70
     1
102
RTVSPropertyOp1
 70
     1
102
RTVSPropertyOp2
 70
     1
102
RTVSPropertyOp3
 70
     1
102
RTVSPropertyOp4
 70
     1
102
RTVSPropertyOp5
 70
     1
102
RTVSPropertyOp6
 70
     1
102
RTVSPropertyOp7
 70
     1
102
RTVSPropertyOp8
 70
     1
102
RTVSPropertyOp9
 70
     1
102
RTVSPropertyOp10
 70
     1
102
RTVSPropertyOp11
 70
     1
102
RTVSPropertyOp12
 70
     1
102
RTVSPropertyOp13
 70
     1
102
RTVSPropertyOp14
 70
     1
102
RTVSPropertyOp15
 70
     1
102
RTVSPropertyOp16
 70
     1
102
RTVSPropertyOp17
 70
     1
102
RTVSPropertyOp18
 70
     1
102
RTVSPropertyOp19
 70
     1
102
RTVSPropertyOp20
 70
     1
102
RTVSPropertyOp21
 70
     1
102
RTVSPropertyOp22
 70
     1
102
RTVSPropertyOp23
 70
     1
102
RTVSPropertyOp24
 70
     1
102
RTVSPropertyOp25
 70
     1
102
RTVSPropertyOp26
 70
     1
102
RTVSPropertyOp27
 70
     1
  0
XRECORD
  5
8A3
102
{ACAD_REACTORS
330
8A2
102
}
330
8A2
100
AcDbXrecord
280
     1
102
RTVSPropertyOp0
 70
     1
102
RTVSPropertyOp1
 70
     1
102
RTVSPropertyOp2
 70
     1
102
RTVSPropertyOp3
 70
     1
102
RTVSPropertyOp4
 70
     1
102
RTVSPropertyOp5
 70
     1
102
RTVSPropertyOp6
 70
     1
102
RTVSPropertyOp7
 70
     1
102
RTVSPropertyOp8
 70
     1
102
RTVSPropertyOp9
 70
     1
102
RTVSPropertyOp10
 70
     1
102
RTVSPropertyOp11
 70
     1
102
RTVSPropertyOp12
 70
     1
102
RTVSPropertyOp13
 70
     1
102
RTVSPropertyOp14
 70
     1
102
RTVSPropertyOp15
 70
     1
102
RTVSPropertyOp16
 70
     1
102
RTVSPropertyOp17
 70
     1
102
RTVSPropertyOp18
 70
     1
102
RTVSPropertyOp19
 70
     1
102
RTVSPropertyOp20
 70
     1
102
RTVSPropertyOp21
 70
     1
102
RTVSPropertyOp22
 70
     1
102
RTVSPropertyOp23
 70
     1
102
RTVSPropertyOp24
 70
     1
102
RTVSPropertyOp25
 70
     1
102
RTVSPropertyOp26
 70
     1
102
RTVSPropertyOp27
 70
     1
  0
XRECORD
  5
8B1
102
{ACAD_REACTORS
330
8B0
102
}
330
8B0
100
AcDbXrecord
280
     1
102
RTVSPropertyOp0
 70
     1
102
RTVSPropertyOp1
 70
     1
102
RTVSPropertyOp2
 70
     1
102
RTVSPropertyOp3
 70
     1
102
RTVSPropertyOp4
 70
     1
102
RTVSPropertyOp5
 70
     1
102
RTVSPropertyOp6
 70
     1
102
RTVSPropertyOp7
 70
     1
102
RTVSPropertyOp8
 70
     1
102
RTVSPropertyOp9
 70
     1
102
RTVSPropertyOp10
 70
     1
102
RTVSPropertyOp11
 70
     1
102
RTVSPropertyOp12
 70
     1
102
RTVSPropertyOp13
 70
     1
102
RTVSPropertyOp14
 70
     1
102
RTVSPropertyOp15
 70
     1
102
RTVSPropertyOp16
 70
     1
102
RTVSPropertyOp17
 70
     1
102
RTVSPropertyOp18
 70
     1
102
RTVSPropertyOp19
 70
     1
102
RTVSPropertyOp20
 70
     1
102
RTVSPropertyOp21
 70
     1
102
RTVSPropertyOp22
 70
     1
102
RTVSPropertyOp23
 70
     1
102
RTVSPropertyOp24
 70
     1
102
RTVSPropertyOp25
 70
     1
102
RTVSPropertyOp26
 70
     1
102
RTVSPropertyOp27
 70
     1
  0
XRECORD
  5
8B9
102
{ACAD_REACTORS
330
8B8
102
}
330
8B8
100
AcDbXrecord
280
     1
102
RTVSPropertyOp0
 70
     1
102
RTVSPropertyOp1
 70
     1
102
RTVSPropertyOp2
 70
     1
102
RTVSPropertyOp3
 70
     1
102
RTVSPropertyOp4
 70
     1
102
RTVSPropertyOp5
 70
     1
102
RTVSPropertyOp6
 70
     1
102
RTVSPropertyOp7
 70
     1
102
RTVSPropertyOp8
 70
     1
102
RTVSPropertyOp9
 70
     1
102
RTVSPropertyOp10
 70
     1
102
RTVSPropertyOp11
 70
     1
102
RTVSPropertyOp12
 70
     1
102
RTVSPropertyOp13
 70
     1
102
RTVSPropertyOp14
 70
     1
102
RTVSPropertyOp15
 70
     1
102
RTVSPropertyOp16
 70
     1
102
RTVSPropertyOp17
 70
     1
102
RTVSPropertyOp18
 70
     1
102
RTVSPropertyOp19
 70
     1
102
RTVSPropertyOp20
 70
     1
102
RTVSPropertyOp21
 70
     1
102
RTVSPropertyOp22
 70
     1
102
RTVSPropertyOp23
 70
     1
102
RTVSPropertyOp24
 70
     1
102
RTVSPropertyOp25
 70
     1
102
RTVSPropertyOp26
 70
     1
102
RTVSPropertyOp27
 70
     1
  0
XRECORD
  5
8AB
102
{ACAD_REACTORS
330
8AA
102
}
330
8AA
100
AcDbXrecord
280
     1
102
RTVSPropertyOp0
 70
     1
102
RTVSPropertyOp1
 70
     1
102
RTVSPropertyOp2
 70
     1
102
RTVSPropertyOp3
 70
     1
102
RTVSPropertyOp4
 70
     1
102
RTVSPropertyOp5
 70
     1
102
RTVSPropertyOp6
 70
     1
102
RTVSPropertyOp7
 70
     1
102
RTVSPropertyOp8
 70
     1
102
RTVSPropertyOp9
 70
     1
102
RTVSPropertyOp10
 70
     1
102
RTVSPropertyOp11
 70
     1
102
RTVSPropertyOp12
 70
     1
102
RTVSPropertyOp13
 70
     1
102
RTVSPropertyOp14
 70
     1
102
RTVSPropertyOp15
 70
     1
102
RTVSPropertyOp16
 70
     1
102
RTVSPropertyOp17
 70
     1
102
RTVSPropertyOp18
 70
     1
102
RTVSPropertyOp19
 70
     1
102
RTVSPropertyOp20
 70
     1
102
RTVSPropertyOp21
 70
     1
102
RTVSPropertyOp22
 70
     1
102
RTVSPropertyOp23
 70
     1
102
RTVSPropertyOp24
 70
     1
102
RTVSPropertyOp25
 70
     1
102
RTVSPropertyOp26
 70
     1
102
RTVSPropertyOp27
 70
     1
  0
XRECORD
  5
8AF
102
{ACAD_REACTORS
330
8AE
102
}
330
8AE
100
AcDbXrecord
280
     1
102
RTVSPropertyOp0
 70
     1
102
RTVSPropertyOp1
 70
     1
102
RTVSPropertyOp2
 70
     1
102
RTVSPropertyOp3
 70
     1
102
RTVSPropertyOp4
 70
     1
102
RTVSPropertyOp5
 70
     1
102
RTVSPropertyOp6
 70
     1
102
RTVSPropertyOp7
 70
     1
102
RTVSPropertyOp8
 70
     1
102
RTVSPropertyOp9
 70
     1
102
RTVSPropertyOp10
 70
     1
102
RTVSPropertyOp11
 70
     1
102
RTVSPropertyOp12
 70
     1
102
RTVSPropertyOp13
 70
     1
102
RTVSPropertyOp14
 70
     1
102
RTVSPropertyOp15
 70
     1
102
RTVSPropertyOp16
 70
     1
102
RTVSPropertyOp17
 70
     1
102
RTVSPropertyOp18
 70
     1
102
RTVSPropertyOp19
 70
     1
102
RTVSPropertyOp20
 70
     1
102
RTVSPropertyOp21
 70
     1
102
RTVSPropertyOp22
 70
     1
102
RTVSPropertyOp23
 70
     1
102
RTVSPropertyOp24
 70
     1
102
RTVSPropertyOp25
 70
     1
102
RTVSPropertyOp26
 70
     1
102
RTVSPropertyOp27
 70
     1
  0
XRECORD
  5
8BF
102
{ACAD_REACTORS
330
8BE
102
}
330
8BE
100
AcDbXrecord
280
     1
102
RTVSPropertyOp0
 70
     0
102
RTVSPropertyOp1
 70
     0
102
RTVSPropertyOp2
 70
     0
102
RTVSPropertyOp3
 70
     0
102
RTVSPropertyOp4
 70
     0
102
RTVSPropertyOp5
 70
     0
102
RTVSPropertyOp6
 70
     0
102
RTVSPropertyOp7
 70
     0
102
RTVSPropertyOp8
 70
     0
102
RTVSPropertyOp9
 70
     0
102
RTVSPropertyOp10
 70
     0
102
RTVSPropertyOp11
 70
     0
102
RTVSPropertyOp12
 70
     0
102
RTVSPropertyOp13
 70
     0
102
RTVSPropertyOp14
 70
     2
102
RTVSPropertyOp15
 70
     0
102
RTVSPropertyOp16
 70
     0
102
RTVSPropertyOp17
 70
     0
102
RTVSPropertyOp18
 70
     0
102
RTVSPropertyOp19
 70
     0
102
RTVSPropertyOp20
 70
     0
102
RTVSPropertyOp21
 70
     0
102
RTVSPropertyOp22
 70
     0
102
RTVSPropertyOp23
 70
     0
102
RTVSPropertyOp24
 70
     0
102
RTVSPropertyOp25
 70
     0
102
RTVSPropertyOp26
 70
     0
102
RTVSPropertyOp27
 70
     0
  0
XRECORD
  5
8B7
102
{ACAD_REACTORS
330
8B6
102
}
330
8B6
100
AcDbXrecord
280
     1
102
RTVSPropertyOp0
 70
     1
102
RTVSPropertyOp1
 70
     1
102
RTVSPropertyOp2
 70
     1
102
RTVSPropertyOp3
 70
     1
102
RTVSPropertyOp4
 70
     1
102
RTVSPropertyOp5
 70
     1
102
RTVSPropertyOp6
 70
     1
102
RTVSPropertyOp7
 70
     1
102
RTVSPropertyOp8
 70
     1
102
RTVSPropertyOp9
 70
     1
102
RTVSPropertyOp10
 70
     1
102
RTVSPropertyOp11
 70
     1
102
RTVSPropertyOp12
 70
     1
102
RTVSPropertyOp13
 70
     1
102
RTVSPropertyOp14
 70
     1
102
RTVSPropertyOp15
 70
     1
102
RTVSPropertyOp16
 70
     1
102
RTVSPropertyOp17
 70
     1
102
RTVSPropertyOp18
 70
     1
102
RTVSPropertyOp19
 70
     1
102
RTVSPropertyOp20
 70
     1
102
RTVSPropertyOp21
 70
     1
102
RTVSPropertyOp22
 70
     1
102
RTVSPropertyOp23
 70
     1
102
RTVSPropertyOp24
 70
     1
102
RTVSPropertyOp25
 70
     1
102
RTVSPropertyOp26
 70
     1
102
RTVSPropertyOp27
 70
     1
  0
XRECORD
  5
89B
102
{ACAD_REACTORS
330
89A
102
}
330
89A
100
AcDbXrecord
280
     1
102
RTVSPropertyOp0
 70
     1
102
RTVSPropertyOp1
 70
     1
102
RTVSPropertyOp2
 70
     1
102
RTVSPropertyOp3
 70
     1
102
RTVSPropertyOp4
 70
     1
102
RTVSPropertyOp5
 70
     1
102
RTVSPropertyOp6
 70
     1
102
RTVSPropertyOp7
 70
     1
102
RTVSPropertyOp8
 70
     1
102
RTVSPropertyOp9
 70
     1
102
RTVSPropertyOp10
 70
     1
102
RTVSPropertyOp11
 70
     1
102
RTVSPropertyOp12
 70
     1
102
RTVSPropertyOp13
 70
     1
102
RTVSPropertyOp14
 70
     1
102
RTVSPropertyOp15
 70
     1
102
RTVSPropertyOp16
 70
     1
102
RTVSPropertyOp17
 70
     1
102
RTVSPropertyOp18
 70
     1
102
RTVSPropertyOp19
 70
     1
102
RTVSPropertyOp20
 70
     1
102
RTVSPropertyOp21
 70
     1
102
RTVSPropertyOp22
 70
     1
102
RTVSPropertyOp23
 70
     1
102
RTVSPropertyOp24
 70
     1
102
RTVSPropertyOp25
 70
     1
102
RTVSPropertyOp26
 70
     1
102
RTVSPropertyOp27
 70
     1
  0
XRECORD
  5
89D
102
{ACAD_REACTORS
330
89C
102
}
330
89C
100
AcDbXrecord
280
     1
102
RTVSPropertyOp0
 70
     1
102
RTVSPropertyOp1
 70
     1
102
RTVSPropertyOp2
 70
     1
102
RTVSPropertyOp3
 70
     1
102
RTVSPropertyOp4
 70
     1
102
RTVSPropertyOp5
 70
     1
102
RTVSPropertyOp6
 70
     1
102
RTVSPropertyOp7
 70
     1
102
RTVSPropertyOp8
 70
     1
102
RTVSPropertyOp9
 70
     1
102
RTVSPropertyOp10
 70
     1
102
RTVSPropertyOp11
 70
     1
102
RTVSPropertyOp12
 70
     1
102
RTVSPropertyOp13
 70
     1
102
RTVSPropertyOp14
 70
     1
102
RTVSPropertyOp15
 70
     1
102
RTVSPropertyOp16
 70
     1
102
RTVSPropertyOp17
 70
     1
102
RTVSPropertyOp18
 70
     1
102
RTVSPropertyOp19
 70
     1
102
RTVSPropertyOp20
 70
     1
102
RTVSPropertyOp21
 70
     1
102
RTVSPropertyOp22
 70
     1
102
RTVSPropertyOp23
 70
     1
102
RTVSPropertyOp24
 70
     1
102
RTVSPropertyOp25
 70
     1
102
RTVSPropertyOp26
 70
     1
102
RTVSPropertyOp27
 70
     1
  0
XRECORD
  5
89F
102
{ACAD_REACTORS
330
89E
102
}
330
89E
100
AcDbXrecord
280
     1
102
RTVSPropertyOp0
 70
     1
102
RTVSPropertyOp1
 70
     1
102
RTVSPropertyOp2
 70
     1
102
RTVSPropertyOp3
 70
     1
102
RTVSPropertyOp4
 70
     1
102
RTVSPropertyOp5
 70
     1
102
RTVSPropertyOp6
 70
     1
102
RTVSPropertyOp7
 70
     1
102
RTVSPropertyOp8
 70
     1
102
RTVSPropertyOp9
 70
     1
102
RTVSPropertyOp10
 70
     1
102
RTVSPropertyOp11
 70
     1
102
RTVSPropertyOp12
 70
     1
102
RTVSPropertyOp13
 70
     1
102
RTVSPropertyOp14
 70
     1
102
RTVSPropertyOp15
 70
     1
102
RTVSPropertyOp16
 70
     1
102
RTVSPropertyOp17
 70
     1
102
RTVSPropertyOp18
 70
     1
102
RTVSPropertyOp19
 70
     1
102
RTVSPropertyOp20
 70
     1
102
RTVSPropertyOp21
 70
     1
102
RTVSPropertyOp22
 70
     1
102
RTVSPropertyOp23
 70
     1
102
RTVSPropertyOp24
 70
     1
102
RTVSPropertyOp25
 70
     1
102
RTVSPropertyOp26
 70
     1
102
RTVSPropertyOp27
 70
     1
  0
XRECORD
  5
8A1
102
{ACAD_REACTORS
330
8A0
102
}
330
8A0
100
AcDbXrecord
280
     1
102
RTVSPropertyOp0
 70
     1
102
RTVSPropertyOp1
 70
     1
102
RTVSPropertyOp2
 70
     1
102
RTVSPropertyOp3
 70
     1
102
RTVSPropertyOp4
 70
     1
102
RTVSPropertyOp5
 70
     1
102
RTVSPropertyOp6
 70
     1
102
RTVSPropertyOp7
 70
     1
102
RTVSPropertyOp8
 70
     1
102
RTVSPropertyOp9
 70
     1
102
RTVSPropertyOp10
 70
     1
102
RTVSPropertyOp11
 70
     1
102
RTVSPropertyOp12
 70
     1
102
RTVSPropertyOp13
 70
     1
102
RTVSPropertyOp14
 70
     1
102
RTVSPropertyOp15
 70
     1
102
RTVSPropertyOp16
 70
     1
102
RTVSPropertyOp17
 70
     1
102
RTVSPropertyOp18
 70
     1
102
RTVSPropertyOp19
 70
     1
102
RTVSPropertyOp20
 70
     1
102
RTVSPropertyOp21
 70
     1
102
RTVSPropertyOp22
 70
     1
102
RTVSPropertyOp23
 70
     1
102
RTVSPropertyOp24
 70
     1
102
RTVSPropertyOp25
 70
     1
102
RTVSPropertyOp26
 70
     1
102
RTVSPropertyOp27
 70
     1
  0
XRECORD
  5
8BB
102
{ACAD_REACTORS
330
8BA
102
}
330
8BA
100
AcDbXrecord
280
     1
102
RTVSPropertyOp0
 70
     0
102
RTVSPropertyOp1
 70
     0
102
RTVSPropertyOp2
 70
     0
102
RTVSPropertyOp3
 70
     0
102
RTVSPropertyOp4
 70
     0
102
RTVSPropertyOp5
 70
     0
102
RTVSPropertyOp6
 70
     0
102
RTVSPropertyOp7
 70
     0
102
RTVSPropertyOp8
 70
     0
102
RTVSPropertyOp9
 70
     0
102
RTVSPropertyOp10
 70
     0
102
RTVSPropertyOp11
 70
     0
102
RTVSPropertyOp12
 70
     0
102
RTVSPropertyOp13
 70
     0
102
RTVSPropertyOp14
 70
     2
102
RTVSPropertyOp15
 70
     0
102
RTVSPropertyOp16
 70
     0
102
RTVSPropertyOp17
 70
     0
102
RTVSPropertyOp18
 70
     0
102
RTVSPropertyOp19
 70
     0
102
RTVSPropertyOp20
 70
     0
102
RTVSPropertyOp21
 70
     0
102
RTVSPropertyOp22
 70
     0
102
RTVSPropertyOp23
 70
     0
102
RTVSPropertyOp24
 70
     0
102
RTVSPropertyOp25
 70
     0
102
RTVSPropertyOp26
 70
     0
102
RTVSPropertyOp27
 70
     0
  0
XRECORD
  5
8B5
102
{ACAD_REACTORS
330
8B4
102
}
330
8B4
100
AcDbXrecord
280
     1
102
RTVSPropertyOp0
 70
     1
102
RTVSPropertyOp1
 70
     1
102
RTVSPropertyOp2
 70
     1
102
RTVSPropertyOp3
 70
     1
102
RTVSPropertyOp4
 70
     1
102
RTVSPropertyOp5
 70
     1
102
RTVSPropertyOp6
 70
     1
102
RTVSPropertyOp7
 70
     1
102
RTVSPropertyOp8
 70
     1
102
RTVSPropertyOp9
 70
     1
102
RTVSPropertyOp10
 70
     1
102
RTVSPropertyOp11
 70
     1
102
RTVSPropertyOp12
 70
     1
102
RTVSPropertyOp13
 70
     1
102
RTVSPropertyOp14
 70
     1
102
RTVSPropertyOp15
 70
     1
102
RTVSPropertyOp16
 70
     1
102
RTVSPropertyOp17
 70
     1
102
RTVSPropertyOp18
 70
     1
102
RTVSPropertyOp19
 70
     1
102
RTVSPropertyOp20
 70
     1
102
RTVSPropertyOp21
 70
     1
102
RTVSPropertyOp22
 70
     1
102
RTVSPropertyOp23
 70
     1
102
RTVSPropertyOp24
 70
     1
102
RTVSPropertyOp25
 70
     1
102
RTVSPropertyOp26
 70
     1
102
RTVSPropertyOp27
 70
     1
  0
XRECORD
  5
8BD
102
{ACAD_REACTORS
330
8BC
102
}
330
8BC
100
AcDbXrecord
280
     1
102
RTVSPropertyOp0
 70
     0
102
RTVSPropertyOp1
 70
     0
102
RTVSPropertyOp2
 70
     0
102
RTVSPropertyOp3
 70
     0
102
RTVSPropertyOp4
 70
     0
102
RTVSPropertyOp5
 70
     0
102
RTVSPropertyOp6
 70
     0
102
RTVSPropertyOp7
 70
     0
102
RTVSPropertyOp8
 70
     0
102
RTVSPropertyOp9
 70
     0
102
RTVSPropertyOp10
 70
     0
102
RTVSPropertyOp11
 70
     0
102
RTVSPropertyOp12
 70
     0
102
RTVSPropertyOp13
 70
     0
102
RTVSPropertyOp14
 70
     2
102
RTVSPropertyOp15
 70
     0
102
RTVSPropertyOp16
 70
     0
102
RTVSPropertyOp17
 70
     0
102
RTVSPropertyOp18
 70
     0
102
RTVSPropertyOp19
 70
     0
102
RTVSPropertyOp20
 70
     0
102
RTVSPropertyOp21
 70
     0
102
RTVSPropertyOp22
 70
     0
102
RTVSPropertyOp23
 70
     0
102
RTVSPropertyOp24
 70
     0
102
RTVSPropertyOp25
 70
     0
102
RTVSPropertyOp26
 70
     0
102
RTVSPropertyOp27
 70
     0
  0
XRECORD
  5
8AD
102
{ACAD_REACTORS
330
8AC
102
}
330
8AC
100
AcDbXrecord
280
     1
102
RTVSPropertyOp0
 70
     1
102
RTVSPropertyOp1
 70
     1
102
RTVSPropertyOp2
 70
     1
102
RTVSPropertyOp3
 70
     1
102
RTVSPropertyOp4
 70
     1
102
RTVSPropertyOp5
 70
     1
102
RTVSPropertyOp6
 70
     1
102
RTVSPropertyOp7
 70
     1
102
RTVSPropertyOp8
 70
     1
102
RTVSPropertyOp9
 70
     1
102
RTVSPropertyOp10
 70
     1
102
RTVSPropertyOp11
 70
     1
102
RTVSPropertyOp12
 70
     1
102
RTVSPropertyOp13
 70
     1
102
RTVSPropertyOp14
 70
     1
102
RTVSPropertyOp15
 70
     1
102
RTVSPropertyOp16
 70
     1
102
RTVSPropertyOp17
 70
     1
102
RTVSPropertyOp18
 70
     1
102
RTVSPropertyOp19
 70
     1
102
RTVSPropertyOp20
 70
     1
102
RTVSPropertyOp21
 70
     1
102
RTVSPropertyOp22
 70
     1
102
RTVSPropertyOp23
 70
     1
102
RTVSPropertyOp24
 70
     1
102
RTVSPropertyOp25
 70
     1
102
RTVSPropertyOp26
 70
     1
102
RTVSPropertyOp27
 70
     1
  0
XRECORD
  5
8B3
102
{ACAD_REACTORS
330
8B2
102
}
330
8B2
100
AcDbXrecord
280
     1
102
RTVSPropertyOp0
 70
     1
102
RTVSPropertyOp1
 70
     1
102
RTVSPropertyOp2
 70
     1
102
RTVSPropertyOp3
 70
     1
102
RTVSPropertyOp4
 70
     1
102
RTVSPropertyOp5
 70
     1
102
RTVSPropertyOp6
 70
     1
102
RTVSPropertyOp7
 70
     1
102
RTVSPropertyOp8
 70
     1
102
RTVSPropertyOp9
 70
     1
102
RTVSPropertyOp10
 70
     1
102
RTVSPropertyOp11
 70
     1
102
RTVSPropertyOp12
 70
     1
102
RTVSPropertyOp13
 70
     1
102
RTVSPropertyOp14
 70
     1
102
RTVSPropertyOp15
 70
     1
102
RTVSPropertyOp16
 70
     1
102
RTVSPropertyOp17
 70
     1
102
RTVSPropertyOp18
 70
     1
102
RTVSPropertyOp19
 70
     1
102
RTVSPropertyOp20
 70
     1
102
RTVSPropertyOp21
 70
     1
102
RTVSPropertyOp22
 70
     1
102
RTVSPropertyOp23
 70
     1
102
RTVSPropertyOp24
 70
     1
102
RTVSPropertyOp25
 70
     1
102
RTVSPropertyOp26
 70
     1
102
RTVSPropertyOp27
 70
     1
  0
ENDSEC
  0
EOF
